  0
SECTION
  2
HEADER
  9
$ACADVER
  1
AC1015
  9
$ACADMAINTVER
 70
     6
  9
$DWGCODEPAGE
  3
ANSI_1254
  9
$INSBASE
 10
0.0
 20
0.0
 30
0.0
  9
$EXTMIN
 10
0.0
 20
0.0
 30
0.0
  9
$EXTMAX
 10
279.4
 20
215.9
 30
0.0
  9
$LIMMIN
 10
0.0
 20
0.0
  9
$LIMMAX
 10
279.4
 20
215.9
  9
$ORTHOMODE
 70
     0
  9
$REGENMODE
 70
     1
  9
$FILLMODE
 70
     1
  9
$QTEXTMODE
 70
     0
  9
$MIRRTEXT
 70
     1
  9
$LTSCALE
 40
1.0
  9
$ATTMODE
 70
     1
  9
$TEXTSIZE
 40
3.5
  9
$TRACEWID
 40
1.0
  9
$TEXTSTYLE
  7
Standard
  9
$CLAYER
  8
0
  9
$CELTYPE
  6
ByLayer
  9
$CECOLOR
 62
   256
  9
$CELTSCALE
 40
1.0
  9
$DISPSILH
 70
     0
  9
$DIMSCALE
 40
1.0
  9
$DIMASZ
 40
3.5
  9
$DIMEXO
 40
1.0
  9
$DIMDLI
 40
3.75
  9
$DIMRND
 40
0.0
  9
$DIMDLE
 40
0.0
  9
$DIMEXE
 40
1.0
  9
$DIMTP
 40
0.0
  9
$DIMTM
 40
0.0
  9
$DIMTXT
 40
3.5
  9
$DIMCEN
 40
2.5
  9
$DIMTSZ
 40
0.0
  9
$DIMTOL
 70
     0
  9
$DIMLIM
 70
     0
  9
$DIMTIH
 70
     1
  9
$DIMTOH
 70
     1
  9
$DIMSE1
 70
     0
  9
$DIMSE2
 70
     0
  9
$DIMTAD
 70
     1
  9
$DIMZIN
 70
     0
  9
$DIMBLK
  1

  9
$DIMASO
 70
     1
  9
$DIMSHO
 70
     1
  9
$DIMPOST
  1

  9
$DIMAPOST
  1

  9
$DIMALT
 70
     0
  9
$DIMALTD
 70
     3
  9
$DIMALTF
 40
0.0393700787
  9
$DIMLFAC
 40
1.0
  9
$DIMTOFL
 70
     1
  9
$DIMTVP
 40
0.0
  9
$DIMTIX
 70
     0
  9
$DIMSOXD
 70
     0
  9
$DIMSAH
 70
     0
  9
$DIMBLK1
  1

  9
$DIMBLK2
  1

  9
$DIMSTYLE
  2
ISO-25
  9
$DIMCLRD
 70
     0
  9
$DIMCLRE
 70
     0
  9
$DIMCLRT
 70
     0
  9
$DIMTFAC
 40
1.0
  9
$DIMGAP
 40
1.524
  9
$DIMJUST
 70
     0
  9
$DIMSD1
 70
     0
  9
$DIMSD2
 70
     0
  9
$DIMTOLJ
 70
     0
  9
$DIMTZIN
 70
     0
  9
$DIMALTZ
 70
     0
  9
$DIMALTTZ
 70
     0
  9
$DIMUPT
 70
     0
  9
$DIMDEC
 70
     2
  9
$DIMTDEC
 70
     2
  9
$DIMALTU
 70
     2
  9
$DIMALTTD
 70
     3
  9
$DIMTXSTY
  7
Standard
  9
$DIMAUNIT
 70
     0
  9
$DIMADEC
 70
     2
  9
$DIMALTRND
 40
0.0
  9
$DIMAZIN
 70
     0
  9
$DIMDSEP
 70
    44
  9
$DIMATFIT
 70
     3
  9
$DIMFRAC
 70
     0
  9
$DIMLDRBLK
  1

  9
$DIMLUNIT
 70
     2
  9
$DIMLWD
 70
    -2
  9
$DIMLWE
 70
    -2
  9
$DIMTMOVE
 70
     0
  9
$LUNITS
 70
     2
  9
$LUPREC
 70
     2
  9
$SKETCHINC
 40
1.0
  9
$FILLETRAD
 40
10.0
  9
$AUNITS
 70
     0
  9
$AUPREC
 70
     2
  9
$MENU
  1
.
  9
$ELEVATION
 40
0.0
  9
$PELEVATION
 40
0.0
  9
$THICKNESS
 40
0.0
  9
$LIMCHECK
 70
     0
  9
$CHAMFERA
 40
0.0
  9
$CHAMFERB
 40
0.0
  9
$CHAMFERC
 40
0.0
  9
$CHAMFERD
 40
0.0
  9
$SKPOLY
 70
     0
  9
$TDCREATE
 40
2459741.614529514
  9
$TDUCREATE
 40
2459741.489529514
  9
$TDUPDATE
 40
2459741.614529699
  9
$TDUUPDATE
 40
2459741.489529699
  9
$TDINDWG
 40
0.0000000116
  9
$TDUSRTIMER
 40
0.0000000116
  9
$USRTIMER
 70
     1
  9
$ANGBASE
 50
0.0
  9
$ANGDIR
 70
     0
  9
$PDMODE
 70
     0
  9
$PDSIZE
 40
-1.0
  9
$PLINEWID
 40
0.0
  9
$SPLFRAME
 70
     0
  9
$SPLINETYPE
 70
     6
  9
$SPLINESEGS
 70
     8
  9
$HANDSEED
  5
144
  9
$SURFTAB1
 70
     6
  9
$SURFTAB2
 70
     6
  9
$SURFTYPE
 70
     6
  9
$SURFU
 70
     6
  9
$SURFV
 70
     6
  9
$UCSBASE
  2

  9
$UCSNAME
  2

  9
$UCSORG
 10
0.0
 20
0.0
 30
0.0
  9
$UCSXDIR
 10
1.0
 20
0.0
 30
0.0
  9
$UCSYDIR
 10
0.0
 20
1.0
 30
0.0
  9
$UCSORTHOREF
  2

  9
$UCSORTHOVIEW
 70
     0
  9
$UCSORGTOP
 10
0.0
 20
0.0
 30
0.0
  9
$UCSORGBOTTOM
 10
0.0
 20
0.0
 30
0.0
  9
$UCSORGLEFT
 10
0.0
 20
0.0
 30
0.0
  9
$UCSORGRIGHT
 10
0.0
 20
0.0
 30
0.0
  9
$UCSORGFRONT
 10
0.0
 20
0.0
 30
0.0
  9
$UCSORGBACK
 10
0.0
 20
0.0
 30
0.0
  9
$PUCSBASE
  2

  9
$PUCSNAME
  2

  9
$PUCSORG
 10
0.0
 20
0.0
 30
0.0
  9
$PUCSXDIR
 10
1.0
 20
0.0
 30
0.0
  9
$PUCSYDIR
 10
0.0
 20
1.0
 30
0.0
  9
$PUCSORTHOREF
  2

  9
$PUCSORTHOVIEW
 70
     0
  9
$PUCSORGTOP
 10
0.0
 20
0.0
 30
0.0
  9
$PUCSORGBOTTOM
 10
0.0
 20
0.0
 30
0.0
  9
$PUCSORGLEFT
 10
0.0
 20
0.0
 30
0.0
  9
$PUCSORGRIGHT
 10
0.0
 20
0.0
 30
0.0
  9
$PUCSORGFRONT
 10
0.0
 20
0.0
 30
0.0
  9
$PUCSORGBACK
 10
0.0
 20
0.0
 30
0.0
  9
$USERI1
 70
     0
  9
$USERI2
 70
     0
  9
$USERI3
 70
     0
  9
$USERI4
 70
     0
  9
$USERI5
 70
     0
  9
$USERR1
 40
0.0
  9
$USERR2
 40
0.0
  9
$USERR3
 40
0.0
  9
$USERR4
 40
0.0
  9
$USERR5
 40
0.0
  9
$WORLDVIEW
 70
     1
  9
$SHADEDGE
 70
     3
  9
$SHADEDIF
 70
    70
  9
$TILEMODE
 70
     1
  9
$MAXACTVP
 70
    64
  9
$PINSBASE
 10
0.0
 20
0.0
 30
0.0
  9
$PLIMCHECK
 70
     0
  9
$PEXTMIN
 10
1.0000000000E+20
 20
1.0000000000E+20
 30
1.0000000000E+20
  9
$PEXTMAX
 10
-1.0000000000E+20
 20
-1.0000000000E+20
 30
-1.0000000000E+20
  9
$PLIMMIN
 10
0.0
 20
0.0
  9
$PLIMMAX
 10
420.0
 20
297.0
  9
$UNITMODE
 70
     0
  9
$VISRETAIN
 70
     1
  9
$PLINEGEN
 70
     0
  9
$PSLTSCALE
 70
     1
  9
$TREEDEPTH
 70
  3020
  9
$CMLSTYLE
  2
Standard
  9
$CMLJUST
 70
     0
  9
$CMLSCALE
 40
20.0
  9
$PROXYGRAPHICS
 70
     1
  9
$MEASUREMENT
 70
     1
  9
$CELWEIGHT
370
    -1
  9
$ENDCAPS
280
     0
  9
$JOINSTYLE
280
     0
  9
$LWDISPLAY
290
     1
  9
$INSUNITS
 70
     4
  9
$HYPERLINKBASE
  1

  9
$STYLESHEET
  1

  9
$XEDIT
290
     1
  9
$CEPSNTYPE
380
     0
  9
$PSTYLEMODE
290
     1
  9
$FINGERPRINTGUID
  2
{1aa856b6-1fc2-42ee-bef9-8c58efd492c0}
  9
$VERSIONGUID
  2
{FAEB1C32-E019-11D5-929B-00C0DF256EC4}
  9
$EXTNAMES
290
     1
  9
$PSVPSCALE
 40
0.0
  9
$OLESTARTUP
290
     0
  0
ENDSEC
  0
SECTION
  2
CLASSES
  0
CLASS
  1
ACDBDICTIONARYWDFLT
  2
AcDbDictionaryWithDefault
  3
ObjectDBX Classes
 90
        0
280
     0
281
     0
  0
CLASS
  1
VISUALSTYLE
  2
AcDbVisualStyle
  3
ObjectDBX Classes
 90
     4095
280
     0
281
     0
  0
CLASS
  1
MATERIAL
  2
AcDbMaterial
  3
ObjectDBX Classes
 90
     1153
280
     0
281
     0
  0
CLASS
  1
SCALE
  2
AcDbScale
  3
ObjectDBX Classes
 90
     1153
280
     0
281
     0
  0
CLASS
  1
TABLESTYLE
  2
AcDbTableStyle
  3
ObjectDBX Classes
 90
     4095
280
     0
281
     0
  0
CLASS
  1
MLEADERSTYLE
  2
AcDbMLeaderStyle
  3
ACDB_MLEADERSTYLE_CLASS
 90
     4095
280
     0
281
     0
  0
CLASS
  1
SUN
  2
AcDbSun
  3
SCENEOE
 90
     1153
280
     0
281
     0
  0
CLASS
  1
ACDBPLACEHOLDER
  2
AcDbPlaceHolder
  3
ObjectDBX Classes
 90
        0
280
     0
281
     0
  0
CLASS
  1
LAYOUT
  2
AcDbLayout
  3
ObjectDBX Classes
 90
        0
280
     0
281
     0
  0
ENDSEC
  0
SECTION
  2
TABLES
  0
TABLE
  2
VPORT
  5
8
330
0
100
AcDbSymbolTable
 70
     1
  0
VPORT
  5
29
330
8
100
AcDbSymbolTableRecord
100
AcDbViewportTableRecord
  2
*Active
 70
     0
 10
0.0
 20
0.0
 11
1.0
 21
1.0
 12
139.7
 22
107.95
 13
0.0
 23
0.0
 14
10.0
 24
10.0
 15
10.0
 25
10.0
 16
0.0
 26
0.0
 36
1.0
 17
0.0
 27
0.0
 37
0.0
 40
215.9
 41
1.2941176471
 42
50.0
 43
0.0
 44
0.0
 50
0.0
 51
0.0
 71
     0
 72
  2000
 73
     1
 74
     3
 75
     0
 76
     0
 77
     0
 78
     0
281
     0
 65
     1
110
0.0
120
0.0
130
0.0
111
1.0
121
0.0
131
0.0
112
0.0
122
1.0
132
0.0
 79
     0
146
0.0
  0
ENDTAB
  0
TABLE
  2
LTYPE
  5
5
330
0
100
AcDbSymbolTable
 70
     6
  0
LTYPE
  5
14
330
5
100
AcDbSymbolTableRecord
100
AcDbLinetypeTableRecord
  2
ByBlock
 70
     0
  3

 72
    65
 73
     0
 40
0.0
  0
LTYPE
  5
15
330
5
100
AcDbSymbolTableRecord
100
AcDbLinetypeTableRecord
  2
ByLayer
 70
     0
  3

 72
    65
 73
     0
 40
0.0
  0
LTYPE
  5
16
330
5
100
AcDbSymbolTableRecord
100
AcDbLinetypeTableRecord
  2
Continuous
 70
     0
  3
Solid line
 72
    65
 73
     0
 40
0.0
  0
LTYPE
  5
6E
330
5
100
AcDbSymbolTableRecord
100
AcDbLinetypeTableRecord
  2
HIDDEN
 70
     0
  3
Hidden __ __ __ __ __ __ __ __ __ __ __ __ __ __
 72
    65
 73
     2
 40
1.905
 49
1.27
 74
     0
 49
-0.635
 74
     0
  0
LTYPE
  5
6F
330
5
100
AcDbSymbolTableRecord
100
AcDbLinetypeTableRecord
  2
PHANTOM
 70
     0
  3
Phantom ______  __  __  ______  __  __  ______
 72
    65
 73
     6
 40
12.7
 49
6.35
 74
     0
 49
-1.27
 74
     0
 49
1.27
 74
     0
 49
-1.27
 74
     0
 49
1.27
 74
     0
 49
-1.27
 74
     0
  0
LTYPE
  5
70
330
5
100
AcDbSymbolTableRecord
100
AcDbLinetypeTableRecord
  2
CENTER
 70
     0
  3
Center ____ _ ____ _ ____ _ ____ _ ____ _ ____
 72
    65
 73
     4
 40
10.16
 49
6.35
 74
     0
 49
-1.27
 74
     0
 49
1.27
 74
     0
 49
-1.27
 74
     0
  0
LTYPE
  5
71
330
5
100
AcDbSymbolTableRecord
100
AcDbLinetypeTableRecord
  2
CENTERX2
 70
     0
  3
Center (2x) ________  __  ________  __  _____
 72
    65
 73
     4
 40
20.32
 49
12.7
 74
     0
 49
-2.54
 74
     0
 49
2.54
 74
     0
 49
-2.54
 74
     0
  0
LTYPE
  5
72
330
5
100
AcDbSymbolTableRecord
100
AcDbLinetypeTableRecord
  2
DOT2
 70
     0
  3
Dot (.5x) ........................................
 72
    65
 73
     2
 40
0.635
 49
0.0
 74
     0
 49
-0.635
 74
     0
  0
ENDTAB
  0
TABLE
  2
LAYER
  5
2
330
0
100
AcDbSymbolTable
 70
    17
  0
LAYER
  5
10
330
2
100
AcDbSymbolTableRecord
100
AcDbLayerTableRecord
  2
0
 70
     0
 62
     7
  6
Continuous
370
    -3
390
F
  0
LAYER
  5
73
330
2
100
AcDbSymbolTableRecord
100
AcDbLayerTableRecord
  2
FORMAT
 70
     0
 62
     7
  6
Continuous
370
    -3
390
F
  0
LAYER
  5
74
330
2
100
AcDbSymbolTableRecord
100
AcDbLayerTableRecord
  2
YARDIMCI_GEOMETRI
 70
     0
 62
    -6
  6
Continuous
290
     0
370
    -3
390
F
  0
LAYER
  5
75
330
2
100
AcDbSymbolTableRecord
100
AcDbLayerTableRecord
  2
SAYFA_CERCEVESI
 70
     0
 62
     7
  6
Continuous
370
    25
390
F
  0
LAYER
  5
76
330
2
100
AcDbSymbolTableRecord
100
AcDbLayerTableRecord
  2
ANTET
 70
     0
 62
     7
  6
Continuous
370
    -3
390
F
  0
LAYER
  5
77
330
2
100
AcDbSymbolTableRecord
100
AcDbLayerTableRecord
  2
OLCU
 70
     0
 62
   150
  6
Continuous
370
    -3
390
F
  0
LAYER
  5
78
330
2
100
AcDbSymbolTableRecord
100
AcDbLayerTableRecord
  2
METIN
 70
     0
 62
    96
  6
Continuous
370
    -3
390
F
  0
LAYER
  5
79
330
2
100
AcDbSymbolTableRecord
100
AcDbLayerTableRecord
  2
BALON
 70
     0
 62
     5
  6
Continuous
370
    -3
390
F
  0
LAYER
  5
7A
330
2
100
AcDbSymbolTableRecord
100
AcDbLayerTableRecord
  2
VURGU
 70
     0
 62
     7
  6
Continuous
370
    -3
390
F
  0
LAYER
  5
7B
330
2
100
AcDbSymbolTableRecord
100
AcDbLayerTableRecord
  2
SILIK
 70
     0
 62
     7
  6
Continuous
370
    -3
390
F
  0
LAYER
  5
7C
330
2
100
AcDbSymbolTableRecord
100
AcDbLayerTableRecord
  2
MODEL
 70
     0
 62
     7
  6
Continuous
370
    -3
390
F
  0
LAYER
  5
7D
330
2
100
AcDbSymbolTableRecord
100
AcDbLayerTableRecord
  2
DETAYLANDıRMA
 70
     0
 62
   190
  6
Continuous
370
    -3
390
F
  0
LAYER
  5
7E
330
2
100
AcDbSymbolTableRecord
100
AcDbLayerTableRecord
  2
TOLERANS
 70
     0
 62
   230
  6
Continuous
370
    -3
390
F
  0
LAYER
  5
7F
330
2
100
AcDbSymbolTableRecord
100
AcDbLayerTableRecord
  2
MERKEZ_CIZGILERI
 70
     0
 62
    30
  6
Continuous
370
    -3
390
F
  0
LAYER
  5
80
330
2
100
AcDbSymbolTableRecord
100
AcDbLayerTableRecord
  2
KESIT-DETAY_CIZGILERI
 70
     0
 62
     7
  6
Continuous
370
    -3
390
F
  0
LAYER
  5
81
330
2
100
AcDbSymbolTableRecord
100
AcDbLayerTableRecord
  2
\U+041E\U+0421\U+0415\U+0412\U+042B\U+0415
 70
     0
 62
     7
  6
Continuous
370
    -3
390
F
  0
LAYER
  5
82
330
2
100
AcDbSymbolTableRecord
100
AcDbLayerTableRecord
  2
\U+0412\U+041E\U+0414\U+042F\U+041D\U+042B\U+0415_\U+0417\U+041D\U+0410\U+041A\U+0418
 70
     0
 62
    11
  6
Continuous
370
    -3
390
F
  0
ENDTAB
  0
TABLE
  2
STYLE
  5
3
330
0
100
AcDbSymbolTable
 70
     1
  0
STYLE
  5
11
330
3
100
AcDbSymbolTableRecord
100
AcDbTextStyleTableRecord
  2
Standard
 70
     0
 40
0.0
 41
1.0
 50
0.0
 71
     0
 42
3.5
  3
txt
  4

  0
ENDTAB
  0
TABLE
  2
VIEW
  5
6
330
0
100
AcDbSymbolTable
 70
     0
  0
ENDTAB
  0
TABLE
  2
UCS
  5
7
330
0
100
AcDbSymbolTable
 70
     0
  0
ENDTAB
  0
TABLE
  2
APPID
  5
9
330
0
100
AcDbSymbolTable
 70
     1
  0
APPID
  5
12
330
9
100
AcDbSymbolTableRecord
100
AcDbRegAppTableRecord
  2
ACAD
 70
     0
  0
ENDTAB
  0
TABLE
  2
DIMSTYLE
  5
A
330
0
100
AcDbSymbolTable
 70
     1
100
AcDbDimStyleTable
  0
DIMSTYLE
105
27
330
A
100
AcDbSymbolTableRecord
100
AcDbDimStyleTableRecord
  2
ISO-25
 70
     0
 41
2.5
 42
0.625
 43
3.75
 44
1.25
 73
     0
 74
     0
 77
     1
 78
     8
140
2.5
141
2.5
143
0.0393700787
147
0.625
171
     3
172
     1
178
     0
271
     2
272
     2
274
     3
278
    44
283
     0
284
     8
340
11
  0
ENDTAB
  0
TABLE
  2
BLOCK_RECORD
  5
1
330
0
100
AcDbSymbolTable
 70
     5
  0
BLOCK_RECORD
  5
1F
330
1
100
AcDbSymbolTableRecord
100
AcDbBlockTableRecord
  2
*Model_Space
340
22
  0
BLOCK_RECORD
  5
1B
330
1
100
AcDbSymbolTableRecord
100
AcDbBlockTableRecord
  2
*Paper_Space
340
1E
  0
BLOCK_RECORD
  5
23
330
1
100
AcDbSymbolTableRecord
100
AcDbBlockTableRecord
  2
*Paper_Space0
340
26
  0
BLOCK_RECORD
  5
C8
330
1
100
AcDbSymbolTableRecord
100
AcDbBlockTableRecord
  2
SW_CENTERMARKSYMBOL_0
340
0
102
{BLKREFS
331
D3
102
}
  0
BLOCK_RECORD
  5
F3
330
1
100
AcDbSymbolTableRecord
100
AcDbBlockTableRecord
  2
SW_CENTERMARKSYMBOL_1
340
0
102
{BLKREFS
331
FE
102
}
  0
BLOCK_RECORD
  5
FF
330
1
100
AcDbSymbolTableRecord
100
AcDbBlockTableRecord
  2
SW_CENTERMARKSYMBOL_2
340
0
102
{BLKREFS
331
10A
102
}
  0
BLOCK_RECORD
  5
10B
330
1
100
AcDbSymbolTableRecord
100
AcDbBlockTableRecord
  2
SW_CENTERMARKSYMBOL_3
340
0
102
{BLKREFS
331
116
102
}
  0
ENDTAB
  0
ENDSEC
  0
SECTION
  2
BLOCKS
  0
BLOCK
  5
20
330
1F
100
AcDbEntity
  8
0
100
AcDbBlockBegin
  2
*Model_Space
 70
     0
 10
0.0
 20
0.0
 30
0.0
  3
*Model_Space
  1

  0
ENDBLK
  5
21
330
1F
100
AcDbEntity
  8
0
100
AcDbBlockEnd
  0
BLOCK
  5
1C
330
1B
100
AcDbEntity
 67
     1
  8
0
100
AcDbBlockBegin
  2
*Paper_Space
 70
     0
 10
0.0
 20
0.0
 30
0.0
  3
*Paper_Space
  1

  0
ENDBLK
  5
1D
330
1B
100
AcDbEntity
 67
     1
  8
0
100
AcDbBlockEnd
  0
BLOCK
  5
24
330
23
100
AcDbEntity
  8
0
100
AcDbBlockBegin
  2
*Paper_Space0
 70
     0
 10
0.0
 20
0.0
 30
0.0
  3
*Paper_Space0
  1

  0
ENDBLK
  5
25
330
23
100
AcDbEntity
  8
0
100
AcDbBlockEnd
  0
BLOCK
  5
C9
330
C8
100
AcDbEntity
  8
0
100
AcDbBlockBegin
  2
SW_CENTERMARKSYMBOL_0
 70
     0
 10
0.0
 20
0.0
 30
0.0
  3
SW_CENTERMARKSYMBOL_0
  1

  0
LINE
  5
CB
330
C8
100
AcDbEntity
  8
FORMAT
 62
     0
100
AcDbLine
 10
0.0
 20
0.0
 30
0.0
 11
0.0
 21
2.5
 31
0.0
  0
LINE
  5
CC
330
C8
100
AcDbEntity
  8
FORMAT
 62
     0
100
AcDbLine
 10
0.0
 20
0.0
 30
0.0
 11
-2.5
 21
0.0
 31
0.0
  0
LINE
  5
CD
330
C8
100
AcDbEntity
  8
FORMAT
 62
     0
100
AcDbLine
 10
0.0
 20
0.0
 30
0.0
 11
0.0
 21
-2.5
 31
0.0
  0
LINE
  5
CE
330
C8
100
AcDbEntity
  8
FORMAT
 62
     0
100
AcDbLine
 10
0.0
 20
0.0
 30
0.0
 11
2.5
 21
0.0
 31
0.0
  0
LINE
  5
CF
330
C8
100
AcDbEntity
  8
FORMAT
 62
     0
100
AcDbLine
 10
0.0
 20
5.0
 30
0.0
 11
0.0
 21
15.5
 31
0.0
  0
LINE
  5
D0
330
C8
100
AcDbEntity
  8
FORMAT
 62
     0
100
AcDbLine
 10
-5.0
 20
0.0
 30
0.0
 11
-15.5
 21
0.0
 31
0.0
  0
LINE
  5
D1
330
C8
100
AcDbEntity
  8
FORMAT
 62
     0
100
AcDbLine
 10
0.0
 20
-5.0
 30
0.0
 11
0.0
 21
-15.5
 31
0.0
  0
LINE
  5
D2
330
C8
100
AcDbEntity
  8
FORMAT
 62
     0
100
AcDbLine
 10
5.0
 20
0.0
 30
0.0
 11
15.5
 21
0.0
 31
0.0
  0
ENDBLK
  5
CA
330
C8
100
AcDbEntity
  8
0
100
AcDbBlockEnd
  0
BLOCK
  5
F4
330
F3
100
AcDbEntity
  8
0
100
AcDbBlockBegin
  2
SW_CENTERMARKSYMBOL_1
 70
     0
 10
0.0
 20
0.0
 30
0.0
  3
SW_CENTERMARKSYMBOL_1
  1

  0
LINE
  5
F6
330
F3
100
AcDbEntity
  8
FORMAT
 62
     0
100
AcDbLine
 10
0.0
 20
0.0
 30
0.0
 11
0.0
 21
2.5
 31
0.0
  0
LINE
  5
F7
330
F3
100
AcDbEntity
  8
FORMAT
 62
     0
100
AcDbLine
 10
0.0
 20
0.0
 30
0.0
 11
-2.5
 21
0.0
 31
0.0
  0
LINE
  5
F8
330
F3
100
AcDbEntity
  8
FORMAT
 62
     0
100
AcDbLine
 10
0.0
 20
0.0
 30
0.0
 11
0.0
 21
-2.5
 31
0.0
  0
LINE
  5
F9
330
F3
100
AcDbEntity
  8
FORMAT
 62
     0
100
AcDbLine
 10
0.0
 20
0.0
 30
0.0
 11
2.5
 21
0.0
 31
0.0
  0
LINE
  5
FA
330
F3
100
AcDbEntity
  8
FORMAT
 62
     0
100
AcDbLine
 10
0.0
 20
5.0
 30
0.0
 11
0.0
 21
18.5
 31
0.0
  0
LINE
  5
FB
330
F3
100
AcDbEntity
  8
FORMAT
 62
     0
100
AcDbLine
 10
-5.0
 20
0.0
 30
0.0
 11
-18.5
 21
0.0
 31
0.0
  0
LINE
  5
FC
330
F3
100
AcDbEntity
  8
FORMAT
 62
     0
100
AcDbLine
 10
0.0
 20
-5.0
 30
0.0
 11
0.0
 21
-18.5
 31
0.0
  0
LINE
  5
FD
330
F3
100
AcDbEntity
  8
FORMAT
 62
     0
100
AcDbLine
 10
5.0
 20
0.0
 30
0.0
 11
18.5
 21
0.0
 31
0.0
  0
ENDBLK
  5
F5
330
F3
100
AcDbEntity
  8
0
100
AcDbBlockEnd
  0
BLOCK
  5
100
330
FF
100
AcDbEntity
  8
0
100
AcDbBlockBegin
  2
SW_CENTERMARKSYMBOL_2
 70
     0
 10
0.0
 20
0.0
 30
0.0
  3
SW_CENTERMARKSYMBOL_2
  1

  0
LINE
  5
102
330
FF
100
AcDbEntity
  8
FORMAT
 62
     0
100
AcDbLine
 10
0.0
 20
0.0
 30
0.0
 11
0.0
 21
2.5
 31
0.0
  0
LINE
  5
103
330
FF
100
AcDbEntity
  8
FORMAT
 62
     0
100
AcDbLine
 10
0.0
 20
0.0
 30
0.0
 11
-2.5
 21
0.0
 31
0.0
  0
LINE
  5
104
330
FF
100
AcDbEntity
  8
FORMAT
 62
     0
100
AcDbLine
 10
0.0
 20
0.0
 30
0.0
 11
0.0
 21
-2.5
 31
0.0
  0
LINE
  5
105
330
FF
100
AcDbEntity
  8
FORMAT
 62
     0
100
AcDbLine
 10
0.0
 20
0.0
 30
0.0
 11
2.5
 21
0.0
 31
0.0
  0
LINE
  5
106
330
FF
100
AcDbEntity
  8
FORMAT
 62
     0
100
AcDbLine
 10
0.0
 20
5.0
 30
0.0
 11
0.0
 21
9.5
 31
0.0
  0
LINE
  5
107
330
FF
100
AcDbEntity
  8
FORMAT
 62
     0
100
AcDbLine
 10
-5.0
 20
0.0
 30
0.0
 11
-9.5
 21
0.0
 31
0.0
  0
LINE
  5
108
330
FF
100
AcDbEntity
  8
FORMAT
 62
     0
100
AcDbLine
 10
0.0
 20
-5.0
 30
0.0
 11
0.0
 21
-9.5
 31
0.0
  0
LINE
  5
109
330
FF
100
AcDbEntity
  8
FORMAT
 62
     0
100
AcDbLine
 10
5.0
 20
0.0
 30
0.0
 11
9.5
 21
0.0
 31
0.0
  0
ENDBLK
  5
101
330
FF
100
AcDbEntity
  8
0
100
AcDbBlockEnd
  0
BLOCK
  5
10C
330
10B
100
AcDbEntity
  8
0
100
AcDbBlockBegin
  2
SW_CENTERMARKSYMBOL_3
 70
     0
 10
0.0
 20
0.0
 30
0.0
  3
SW_CENTERMARKSYMBOL_3
  1

  0
LINE
  5
10E
330
10B
100
AcDbEntity
  8
FORMAT
 62
     0
100
AcDbLine
 10
0.0
 20
0.0
 30
0.0
 11
0.0
 21
2.5
 31
0.0
  0
LINE
  5
10F
330
10B
100
AcDbEntity
  8
FORMAT
 62
     0
100
AcDbLine
 10
0.0
 20
0.0
 30
0.0
 11
-2.5
 21
0.0
 31
0.0
  0
LINE
  5
110
330
10B
100
AcDbEntity
  8
FORMAT
 62
     0
100
AcDbLine
 10
0.0
 20
0.0
 30
0.0
 11
0.0
 21
-2.5
 31
0.0
  0
LINE
  5
111
330
10B
100
AcDbEntity
  8
FORMAT
 62
     0
100
AcDbLine
 10
0.0
 20
0.0
 30
0.0
 11
2.5
 21
0.0
 31
0.0
  0
LINE
  5
112
330
10B
100
AcDbEntity
  8
FORMAT
 62
     0
100
AcDbLine
 10
0.0
 20
5.0
 30
0.0
 11
0.0
 21
9.5
 31
0.0
  0
LINE
  5
113
330
10B
100
AcDbEntity
  8
FORMAT
 62
     0
100
AcDbLine
 10
-5.0
 20
0.0
 30
0.0
 11
-9.5
 21
0.0
 31
0.0
  0
LINE
  5
114
330
10B
100
AcDbEntity
  8
FORMAT
 62
     0
100
AcDbLine
 10
0.0
 20
-5.0
 30
0.0
 11
0.0
 21
-9.5
 31
0.0
  0
LINE
  5
115
330
10B
100
AcDbEntity
  8
FORMAT
 62
     0
100
AcDbLine
 10
5.0
 20
0.0
 30
0.0
 11
9.5
 21
0.0
 31
0.0
  0
ENDBLK
  5
10D
330
10B
100
AcDbEntity
  8
0
100
AcDbBlockEnd
  0
ENDSEC
  0
SECTION
  2
ENTITIES
  0
LINE
  5
83
330
1F
100
AcDbEntity
  8
0
  6
Continuous
 62
     7
370
    25
100
AcDbLine
 10
171.1807140607
 20
-11.7615714286
 30
0.0
 11
211.1807140607
 21
-11.7615714286
 31
0.0
  0
LINE
  5
84
330
1F
100
AcDbEntity
  8
0
  6
Continuous
 62
     7
370
    25
100
AcDbLine
 10
71.1807140607
 20
-11.7615714286
 30
0.0
 11
111.1807140607
 21
-11.7615714286
 31
0.0
  0
LINE
  5
85
330
1F
100
AcDbEntity
  8
0
  6
Continuous
 62
     7
370
    25
100
AcDbLine
 10
74.2698185373
 20
162.2384285714
 30
0.0
 11
71.1807140607
 21
162.2384285714
 31
0.0
  0
LINE
  5
86
330
1F
100
AcDbEntity
  8
0
  6
Continuous
 62
     7
370
    25
100
AcDbLine
 10
125.2347873293
 20
162.2384285714
 30
0.0
 11
88.1740737246
 21
162.2384285714
 31
0.0
  0
LINE
  5
87
330
1F
100
AcDbEntity
  8
0
  6
Continuous
 62
     7
370
    25
100
AcDbLine
 10
194.2698185373
 20
162.2384285714
 30
0.0
 11
157.1620142967
 21
162.2384285714
 31
0.0
  0
LINE
  5
88
330
1F
100
AcDbEntity
  8
0
  6
Continuous
 62
     7
370
    25
100
AcDbLine
 10
211.1807140607
 20
162.2384285714
 30
0.0
 11
208.1740737246
 21
162.2384285714
 31
0.0
  0
LINE
  5
89
330
1F
100
AcDbEntity
  8
0
  6
Continuous
 62
     7
370
    25
100
AcDbLine
 10
125.1807140607
 20
210.2384285714
 30
0.0
 11
125.1807140607
 21
162.2285101211
 31
0.0
  0
LINE
  5
8A
330
1F
100
AcDbEntity
  8
0
  6
Continuous
 62
     7
370
    25
100
AcDbLine
 10
157.1807140607
 20
162.2350206142
 30
0.0
 11
157.1807140607
 21
210.2384285714
 31
0.0
  0
LINE
  5
8B
330
1F
100
AcDbEntity
  8
0
  6
Continuous
 62
     7
370
    25
100
AcDbLine
 10
74.1807140607
 20
177.2384285714
 30
0.0
 11
74.1807140607
 21
162.2384285714
 31
0.0
  0
LINE
  5
8C
330
1F
100
AcDbEntity
  8
0
  6
Continuous
 62
     7
370
    25
100
AcDbLine
 10
88.1807140607
 20
162.2379221398
 30
0.0
 11
88.1807140607
 21
177.2384285714
 31
0.0
  0
LINE
  5
8D
330
1F
100
AcDbEntity
  8
0
  6
Continuous
 62
     7
370
    25
100
AcDbLine
 10
194.1807140607
 20
177.2384285714
 30
0.0
 11
194.1807140607
 21
162.2384285714
 31
0.0
  0
LINE
  5
8E
330
1F
100
AcDbEntity
  8
0
  6
Continuous
 62
     7
370
    25
100
AcDbLine
 10
208.1807140607
 20
162.2379221398
 30
0.0
 11
208.1807140607
 21
177.2384285714
 31
0.0
  0
LINE
  5
8F
330
1F
100
AcDbEntity
  8
0
  6
Continuous
 62
     7
370
    25
100
AcDbLine
 10
211.1807140607
 20
77.2384285714
 30
0.0
 11
71.1807140607
 21
77.2384285714
 31
0.0
  0
LINE
  5
90
330
1F
100
AcDbEntity
  8
0
  6
Continuous
 62
     7
370
    25
100
AcDbLine
 10
71.1807140607
 20
84.2384285714
 30
0.0
 11
71.1807140607
 21
77.2384285714
 31
0.0
  0
LINE
  5
91
330
1F
100
AcDbEntity
  8
0
  6
Continuous
 62
     7
370
    25
100
AcDbLine
 10
211.1807140607
 20
84.2384285714
 30
0.0
 11
71.1807140607
 21
84.2384285714
 31
0.0
  0
LINE
  5
92
330
1F
100
AcDbEntity
  8
0
  6
Continuous
 62
     7
370
    25
100
AcDbLine
 10
211.1807140607
 20
84.2384285714
 30
0.0
 11
211.1807140607
 21
77.2384285714
 31
0.0
  0
LINE
  5
93
330
1F
100
AcDbEntity
  8
0
  6
Continuous
 62
     7
370
    25
100
AcDbLine
 10
71.1807140607
 20
73.2384285714
 30
0.0
 11
71.1807140607
 21
66.2384285714
 31
0.0
  0
LINE
  5
94
330
1F
100
AcDbEntity
  8
0
  6
Continuous
 62
     7
370
    25
100
AcDbLine
 10
211.1807140607
 20
73.2384285714
 30
0.0
 11
71.1807140607
 21
73.2384285714
 31
0.0
  0
LINE
  5
95
330
1F
100
AcDbEntity
  8
0
  6
Continuous
 62
     7
370
    25
100
AcDbLine
 10
211.1807140607
 20
73.2384285714
 30
0.0
 11
211.1807140607
 21
66.2384285714
 31
0.0
  0
LINE
  5
96
330
1F
100
AcDbEntity
  8
0
  6
Continuous
 62
     7
370
    25
100
AcDbLine
 10
211.1807140607
 20
66.2384285714
 30
0.0
 11
71.1807140607
 21
66.2384285714
 31
0.0
  0
SPLINE
  5
97
330
1F
100
AcDbEntity
  8
0
  6
Continuous
 62
     7
370
    25
100
AcDbSpline
210
0.0
220
0.0
230
1.0
 70
     8
 71
     3
 72
    12
 73
     8
 74
     0
 42
0.00000001
 43
0.00000001
 40
0.0
 40
0.0
 40
0.0
 40
0.0
 40
0.2143647011594338
 40
0.4287125689862891
 40
0.6434970542938002
 40
0.8585678617129181
 40
1.0
 40
1.0
 40
1.0
 40
1.0
 10
81.18071406074249
 20
161.9563621261437
 30
0.0
 10
80.39543048548678
 20
161.9627335549952
 30
0.0
 10
78.82492500062985
 20
161.9754759123715
 30
0.0
 10
76.72613066012423
 20
162.0649725728616
 30
0.0
 10
75.1568608071237
 20
162.1619486291245
 30
0.0
 10
74.26443331104247
 20
162.2316159416976
 30
0.0
 10
74.2682889321287
 20
162.231407829936
 30
0.0
 10
74.26981853725879
 20
162.2313252676689
 30
0.0
  0
SPLINE
  5
98
330
1F
100
AcDbEntity
  8
0
  6
Continuous
 62
     7
370
    25
100
AcDbSpline
210
0.0
220
0.0
230
1.0
 70
     8
 71
     3
 72
    13
 73
     9
 74
     0
 42
0.00000001
 43
0.00000001
 40
0.0
 40
0.0
 40
0.0
 40
0.0
 40
0.0036719561747093
 40
0.2177134803259544
 40
0.4317473869509552
 40
0.6463794268254545
 40
0.8612881890138449
 40
1.0
 40
1.0
 40
1.0
 40
1.0
 10
88.17407372458194
 20
162.2379085278799
 30
0.0
 10
88.17628437003802
 20
162.2380816315004
 30
0.0
 10
88.3073554648736
 20
162.2483450959576
 30
0.0
 10
87.84145739779412
 20
162.2106956169809
 30
0.0
 10
86.74885307685199
 20
162.13080904151
 30
0.0
 10
84.93682478768461
 20
162.0301305987815
 30
0.0
 10
82.98146254004038
 20
161.9658882184709
 30
0.0
 10
81.68806456363453
 20
161.9590460477398
 30
0.0
 10
81.18071406074249
 20
161.9563621261437
 30
0.0
  0
SPLINE
  5
99
330
1F
100
AcDbEntity
  8
0
  6
Continuous
 62
     7
370
    25
100
AcDbSpline
210
0.0
220
0.0
230
1.0
 70
     8
 71
     3
 72
    17
 73
    13
 74
     0
 42
0.00000001
 43
0.00000001
 40
0.0
 40
0.0
 40
0.0
 40
0.0
 40
0.1046115367554546
 40
0.2122893340097146
 40
0.3168917776918285
 40
0.4244673480559994
 40
0.5301840009211686
 40
0.6389200209599176
 40
0.7453538773671641
 40
0.8549407034972341
 40
0.9601703867206838
 40
0.9999999999999999
 40
0.9999999999999999
 40
0.9999999999999999
 40
0.9999999999999999
 10
141.1807140607425
 20
160.7545089306218
 30
0.0
 10
140.3024548775745
 20
160.762409059345
 30
0.0
 10
138.5201939256253
 20
160.778440876841
 30
0.0
 10
135.9348788191714
 20
160.903824007859
 30
0.0
 10
133.4765468560981
 20
161.0899431373103
 30
0.0
 10
131.2484255196487
 20
161.3209535294527
 30
0.0
 10
129.2715620417743
 20
161.57354111947
 30
0.0
 10
127.6372533105404
 20
161.8163553156943
 30
0.0
 10
126.361053385011
 20
162.0271123743428
 30
0.0
 10
125.5489022880401
 20
162.1707728324062
 30
0.0
 10
125.1683191057945
 20
162.2406976090031
 30
0.0
 10
125.2204684410755
 20
162.2311317569958
 30
0.0
 10
125.2347873293308
 20
162.2285052160203
 30
0.0
  0
SPLINE
  5
9A
330
1F
100
AcDbEntity
  8
0
  6
Continuous
 62
     7
370
    25
100
AcDbSpline
210
0.0
220
0.0
230
1.0
 70
     8
 71
     3
 72
    17
 73
    13
 74
     0
 42
0.00000001
 43
0.00000001
 40
0.0
 40
0.0
 40
0.0
 40
0.0
 40
0.094269428350481
 40
0.2016008087793243
 40
0.3057722675592074
 40
0.4128853910473637
 40
0.5184970601431427
 40
0.6271185752522922
 40
0.7335698190140763
 40
0.843168835895357
 40
0.9209680878064691
 40
1.0
 40
1.0
 40
1.0
 40
1.0
 10
157.1620142966997
 20
162.2350060805768
 30
0.0
 10
157.1354996606206
 20
162.2300919098885
 30
0.0
 10
157.0787965260882
 20
162.2195826620595
 30
0.0
 10
156.4538735077586
 20
162.1063982383383
 30
0.0
 10
155.4213780606541
 20
161.929367863098
 30
0.0
 10
153.9945286995908
 20
161.7042762675858
 30
0.0
 10
152.1942816322773
 20
161.4535128022704
 30
0.0
 10
150.0867436863552
 20
161.2073124827827
 30
0.0
 10
147.6974529386568
 20
160.9902336529163
 30
0.0
 10
145.3599886716048
 20
160.8469963481915
 30
0.0
 10
143.1600743042721
 20
160.7678939439963
 30
0.0
 10
141.8439489655914
 20
160.7589939191937
 30
0.0
 10
141.1807140607425
 20
160.7545089306218
 30
0.0
  0
SPLINE
  5
9B
330
1F
100
AcDbEntity
  8
0
  6
Continuous
 62
     7
370
    25
100
AcDbSpline
210
0.0
220
0.0
230
1.0
 70
     8
 71
     3
 72
    12
 73
     8
 74
     0
 42
0.00000001
 43
0.00000001
 40
0.0
 40
0.0
 40
0.0
 40
0.0
 40
0.2143647011594338
 40
0.4287125689862898
 40
0.6434970542938002
 40
0.8585678617129189
 40
1.0
 40
1.0
 40
1.0
 40
1.0
 10
201.1807140607425
 20
161.9563621261437
 30
0.0
 10
200.3954304854868
 20
161.9627335549952
 30
0.0
 10
198.8249250006299
 20
161.9754759123715
 30
0.0
 10
196.7261306601242
 20
162.0649725728616
 30
0.0
 10
195.1568608071237
 20
162.1619486291245
 30
0.0
 10
194.2644333110425
 20
162.2316159416976
 30
0.0
 10
194.2682889321287
 20
162.231407829936
 30
0.0
 10
194.2698185372588
 20
162.2313252676689
 30
0.0
  0
SPLINE
  5
9C
330
1F
100
AcDbEntity
  8
0
  6
Continuous
 62
     7
370
    25
100
AcDbSpline
210
0.0
220
0.0
230
1.0
 70
     8
 71
     3
 72
    13
 73
     9
 74
     0
 42
0.00000001
 43
0.00000001
 40
0.0
 40
0.0
 40
0.0
 40
0.0
 40
0.0036719561747094
 40
0.2177134803259543
 40
0.4317473869509545
 40
0.6463794268254538
 40
0.8612881890138442
 40
1.0
 40
1.0
 40
1.0
 40
1.0
 10
208.174073724582
 20
162.2379085278799
 30
0.0
 10
208.176284370038
 20
162.2380816315004
 30
0.0
 10
208.3073554648738
 20
162.2483450959574
 30
0.0
 10
207.8414573977941
 20
162.210695616981
 30
0.0
 10
206.748853076852
 20
162.13080904151
 30
0.0
 10
204.9368247876847
 20
162.0301305987814
 30
0.0
 10
202.9814625400404
 20
161.9658882184709
 30
0.0
 10
201.6880645636345
 20
161.9590460477398
 30
0.0
 10
201.1807140607425
 20
161.9563621261437
 30
0.0
  0
LINE
  5
9D
330
1F
100
AcDbEntity
  8
0
  6
Continuous
 62
     7
370
    25
100
AcDbLine
 10
111.1807140607
 20
65.2384285714
 30
0.0
 11
171.1807140607
 21
65.2384285714
 31
0.0
  0
LINE
  5
9E
330
1F
100
AcDbEntity
  8
0
  6
Continuous
 62
     7
370
    25
100
AcDbLine
 10
111.1807140607
 20
-11.7615714286
 30
0.0
 11
111.1807140607
 21
65.2384285714
 31
0.0
  0
LINE
  5
9F
330
1F
100
AcDbEntity
  8
0
  6
Continuous
 62
     7
370
    25
100
AcDbLine
 10
171.1807140607
 20
65.2384285714
 30
0.0
 11
171.1807140607
 21
-11.7615714286
 31
0.0
  0
LINE
  5
A0
330
1F
100
AcDbEntity
  8
0
  6
Continuous
 62
     7
370
    25
100
AcDbLine
 10
71.1807140607
 20
66.2384285714
 30
0.0
 11
71.1807140607
 21
-11.7615714286
 31
0.0
  0
LINE
  5
A1
330
1F
100
AcDbEntity
  8
0
  6
Continuous
 62
     7
370
    25
100
AcDbLine
 10
71.1807140607
 20
162.2384285714
 30
0.0
 11
71.1807140607
 21
84.2384285714
 31
0.0
  0
LINE
  5
A2
330
1F
100
AcDbEntity
  8
0
  6
Continuous
 62
     7
370
    25
100
AcDbLine
 10
211.1807140607
 20
66.2384285714
 30
0.0
 11
211.1807140607
 21
-11.7615714286
 31
0.0
  0
LINE
  5
A3
330
1F
100
AcDbEntity
  8
0
  6
Continuous
 62
     7
370
    25
100
AcDbLine
 10
211.1807140607
 20
162.2384285714
 30
0.0
 11
211.1807140607
 21
84.2384285714
 31
0.0
  0
LINE
  5
A4
330
1F
100
AcDbEntity
  8
0
  6
Continuous
 62
     7
370
    25
100
AcDbLine
 10
71.1807140607
 20
77.2384285714
 30
0.0
 11
71.1807140607
 21
73.2384285714
 31
0.0
  0
LINE
  5
A5
330
1F
100
AcDbEntity
  8
0
  6
Continuous
 62
     7
370
    25
100
AcDbLine
 10
211.1807140607
 20
77.2384285714
 30
0.0
 11
211.1807140607
 21
73.2384285714
 31
0.0
  0
LINE
  5
A6
330
1F
100
AcDbEntity
  8
0
  6
Continuous
 62
     7
370
    25
100
AcDbLine
 10
141.1807140607
 20
210.2384285714
 30
0.0
 11
157.1807140607
 21
210.2384285714
 31
0.0
  0
LINE
  5
A7
330
1F
100
AcDbEntity
  8
0
  6
Continuous
 62
     7
370
    25
100
AcDbLine
 10
125.1807140607
 20
210.2384285714
 30
0.0
 11
141.1807140607
 21
210.2384285714
 31
0.0
  0
LINE
  5
A8
330
1F
100
AcDbEntity
  8
0
  6
Continuous
 62
     7
370
    25
100
AcDbLine
 10
81.1807140607
 20
177.2384285714
 30
0.0
 11
88.1807140607
 21
177.2384285714
 31
0.0
  0
LINE
  5
A9
330
1F
100
AcDbEntity
  8
0
  6
Continuous
 62
     7
370
    25
100
AcDbLine
 10
74.1807140607
 20
177.2384285714
 30
0.0
 11
81.1807140607
 21
177.2384285714
 31
0.0
  0
LINE
  5
AA
330
1F
100
AcDbEntity
  8
0
  6
Continuous
 62
     7
370
    25
100
AcDbLine
 10
201.1807140607
 20
177.2384285714
 30
0.0
 11
194.1807140607
 21
177.2384285714
 31
0.0
  0
LINE
  5
AB
330
1F
100
AcDbEntity
  8
0
  6
Continuous
 62
     7
370
    25
100
AcDbLine
 10
208.1807140607
 20
177.2384285714
 30
0.0
 11
201.1807140607
 21
177.2384285714
 31
0.0
  0
LINE
  5
AC
330
1F
100
AcDbEntity
  8
0
  6
Continuous
 62
     7
370
    25
100
AcDbLine
 10
371.9246259056
 20
177.2384285714
 30
0.0
 11
371.9246259056
 21
161.9632575742
 31
0.0
  0
LINE
  5
AD
330
1F
100
AcDbEntity
  8
0
  6
Continuous
 62
     7
370
    25
100
AcDbLine
 10
385.9246259056
 20
161.9563621261
 30
0.0
 11
385.9246259056
 21
177.2384285714
 31
0.0
  0
LINE
  5
AE
330
1F
100
AcDbEntity
  8
0
  6
Continuous
 62
     7
370
    25
100
AcDbLine
 10
362.9246259056
 20
210.2384285714
 30
0.0
 11
362.9246259056
 21
160.7632181055
 31
0.0
  0
LINE
  5
AF
330
1F
100
AcDbEntity
  8
0
  6
Continuous
 62
     7
370
    25
100
AcDbLine
 10
394.9246259056
 20
160.7545089306
 30
0.0
 11
394.9246259056
 21
210.2384285714
 31
0.0
  0
LINE
  5
B0
330
1F
100
AcDbEntity
  8
0
  6
Continuous
 62
     7
370
    25
100
AcDbLine
 10
465.4578565168
 20
84.2384285714
 30
0.0
 11
480.4578565168
 21
84.2384285714
 31
0.0
  0
LINE
  5
B1
330
1F
100
AcDbEntity
  8
0
  6
Continuous
 62
     7
370
    25
100
AcDbLine
 10
480.4578565168
 20
84.2384285714
 30
0.0
 11
480.4578565168
 21
77.2384285714
 31
0.0
  0
LINE
  5
B2
330
1F
100
AcDbEntity
  8
0
  6
Continuous
 62
     7
370
    25
100
AcDbLine
 10
480.4578565168
 20
77.2384285714
 30
0.0
 11
458.8996219982
 21
77.2384285714
 31
0.0
  0
ARC
  5
B3
330
1F
100
AcDbEntity
  8
0
  6
Continuous
 62
     7
370
    25
100
AcDbCircle
 10
378.9246259056
 20
75.2384285714
 30
0.0
 40
79.99999999999997
100
AcDbArc
 50
1.4325437376
 51
358.5674562624
  0
LINE
  5
B4
330
1F
100
AcDbEntity
  8
0
  6
Continuous
 62
     7
370
    25
100
AcDbLine
 10
458.8996219982
 20
73.2384285714
 30
0.0
 11
480.4578565168
 21
73.2384285714
 31
0.0
  0
LINE
  5
B5
330
1F
100
AcDbEntity
  8
0
  6
Continuous
 62
     7
370
    25
100
AcDbLine
 10
480.4578565168
 20
73.2384285714
 30
0.0
 11
480.4578565168
 21
66.2384285714
 31
0.0
  0
LINE
  5
B6
330
1F
100
AcDbEntity
  8
0
  6
Continuous
 62
     7
370
    25
100
AcDbLine
 10
480.4578565168
 20
66.2384285714
 30
0.0
 11
465.4578565168
 21
66.2384285714
 31
0.0
  0
ARC
  5
B7
330
1F
100
AcDbEntity
  8
0
  6
Continuous
 62
     7
370
    25
100
AcDbCircle
 10
378.9246259056
 20
75.2384285714
 30
0.0
 40
86.99999999999996
100
AcDbArc
 50
5.9377724516
 51
354.0622275484
  0
LINE
  5
B8
330
1F
100
AcDbEntity
  8
0
  6
Continuous
 62
     7
370
    25
100
AcDbLine
 10
371.9246259056
 20
177.2384285714
 30
0.0
 11
385.9246259056
 21
177.2384285714
 31
0.0
  0
LINE
  5
B9
330
1F
100
AcDbEntity
  8
0
  6
Continuous
 62
     7
370
    25
100
AcDbLine
 10
362.9246259056
 20
210.2384285714
 30
0.0
 11
394.9246259056
 21
210.2384285714
 31
0.0
  0
LINE
  5
BA
330
1F
100
AcDbEntity
  8
0
  6
Continuous
 62
     7
370
    25
100
AcDbLine
 10
71.1807140607
 20
283.8102565782
 30
0.0
 11
211.1807140607
 21
283.8102565782
 31
0.0
  0
LINE
  5
BB
330
1F
100
AcDbEntity
  8
0
  6
Continuous
 62
     7
370
    25
100
AcDbLine
 10
211.1807140607
 20
457.3434871894
 30
0.0
 11
71.1807140607
 21
457.3434871894
 31
0.0
  0
LINE
  5
BC
330
1F
100
AcDbEntity
  8
0
  6
Continuous
 62
     7
370
    25
100
AcDbLine
 10
211.1807140607
 20
457.3434871894
 30
0.0
 11
211.1807140607
 21
283.8102565782
 31
0.0
  0
LINE
  5
BD
330
1F
100
AcDbEntity
  8
0
  6
Continuous
 62
     7
370
    25
100
AcDbLine
 10
71.1807140607
 20
457.3434871894
 30
0.0
 11
71.1807140607
 21
283.8102565782
 31
0.0
  0
LINE
  5
BE
330
1F
100
AcDbEntity
  8
0
  6
Continuous
 62
     7
370
    25
100
AcDbLine
 10
111.1807140607
 20
457.2336330455
 30
0.0
 11
171.1807140607
 21
457.2336330455
 31
0.0
  0
LINE
  5
BF
330
1F
100
AcDbEntity
  8
0
  6
Continuous
 62
     7
370
    25
100
AcDbLine
 10
111.1807140607
 20
284.386880111
 30
0.0
 11
111.1807140607
 21
457.2336330455
 31
0.0
  0
LINE
  5
C0
330
1F
100
AcDbEntity
  8
0
  6
Continuous
 62
     7
370
    25
100
AcDbLine
 10
171.1807140607
 20
284.386880111
 30
0.0
 11
111.1807140607
 21
284.386880111
 31
0.0
  0
LINE
  5
C1
330
1F
100
AcDbEntity
  8
0
  6
Continuous
 62
     7
370
    25
100
AcDbLine
 10
171.1807140607
 20
457.2336330455
 30
0.0
 11
171.1807140607
 21
284.386880111
 31
0.0
  0
SPLINE
  5
C2
330
1F
100
AcDbEntity
  8
0
  6
Continuous
 62
     7
370
    25
100
AcDbSpline
210
0.0
220
0.0
230
1.0
 70
    11
 71
     3
 72
   102
 73
    98
 74
     0
 42
0.00000001
 43
0.00000001
 40
0.0
 40
0.0
 40
0.0
 40
0.0
 40
0.03125
 40
0.03125
 40
0.046875
 40
0.046875
 40
0.0625
 40
0.0625
 40
0.09375
 40
0.09375
 40
0.109375
 40
0.109375
 40
0.125
 40
0.125
 40
0.1562499999999999
 40
0.1562499999999999
 40
0.1718749999999998
 40
0.1718749999999998
 40
0.1874999999999998
 40
0.1874999999999998
 40
0.2031249999999998
 40
0.2031249999999998
 40
0.2187499999999997
 40
0.2187499999999997
 40
0.2499999999999997
 40
0.2499999999999997
 40
0.2656249999999997
 40
0.2656249999999997
 40
0.2812499999999997
 40
0.2812499999999997
 40
0.3124999999999996
 40
0.3124999999999996
 40
0.3281249999999996
 40
0.3281249999999996
 40
0.3437499999999996
 40
0.3437499999999996
 40
0.3749999999999996
 40
0.3749999999999996
 40
0.4062499999999996
 40
0.4062499999999996
 40
0.4218749999999996
 40
0.4218749999999996
 40
0.4374999999999996
 40
0.4374999999999996
 40
0.4687499999999995
 40
0.4687499999999995
 40
0.4843749999999995
 40
0.4843749999999995
 40
0.4999999999999995
 40
0.4999999999999995
 40
0.5312499999999994
 40
0.5312499999999994
 40
0.5468749999999994
 40
0.5468749999999994
 40
0.5624999999999994
 40
0.5624999999999994
 40
0.5781249999999994
 40
0.5781249999999994
 40
0.5937499999999994
 40
0.5937499999999994
 40
0.6249999999999994
 40
0.6249999999999994
 40
0.6562499999999994
 40
0.6562499999999994
 40
0.6874999999999994
 40
0.6874999999999994
 40
0.7031249999999994
 40
0.7031249999999994
 40
0.7187499999999994
 40
0.7187499999999994
 40
0.7343749999999994
 40
0.7343749999999994
 40
0.7499999999999994
 40
0.7499999999999994
 40
0.7812499999999993
 40
0.7812499999999993
 40
0.7968749999999993
 40
0.7968749999999993
 40
0.8124999999999993
 40
0.8124999999999993
 40
0.8437499999999993
 40
0.8437499999999993
 40
0.8593749999999993
 40
0.8593749999999993
 40
0.8749999999999993
 40
0.8749999999999993
 40
0.9062499999999994
 40
0.9062499999999994
 40
0.9218749999999996
 40
0.9218749999999996
 40
0.9374999999999997
 40
0.9374999999999997
 40
0.9531249999999998
 40
0.9531249999999998
 40
0.9687499999999999
 40
0.9687499999999999
 40
1.0
 40
1.0
 40
1.0
 40
1.0
 10
141.1807140607425
 20
357.8102565782256
 30
0.0
 10
142.0410862488777
 20
357.8102565782256
 30
0.0
 10
142.8867908259084
 20
357.8948239331771
 30
0.0
 10
144.134313938907
 20
358.1431328974501
 30
0.0
 10
144.5466236736256
 20
358.2462973026169
 30
0.0
 10
145.3640368354778
 20
358.4943225590927
 30
0.0
 10
145.7699351222443
 20
358.639781672745
 30
0.0
 10
146.9501213388539
 20
359.1295212775547
 30
0.0
 10
147.6962247048993
 20
359.5288985897812
 30
0.0
 10
148.7552446641166
 20
360.2363871165319
 30
0.0
 10
149.0996411208677
 20
360.4916663173251
 30
0.0
 10
149.7603653039602
 20
361.0341481857881
 30
0.0
 10
150.074911914229
 20
361.3196108404485
 30
0.0
 10
150.9725880105338
 20
362.2174891276774
 30
0.0
 10
151.5102018844495
 20
362.8709893159192
 30
0.0
 10
152.2230098160404
 20
363.9363730111917
 30
0.0
 10
152.4438628609969
 20
364.3047200961212
 30
0.0
 10
152.844617380711
 20
365.0540525200732
 30
0.0
 10
153.0257931664007
 20
365.4368759993085
 30
0.0
 10
153.3502084404829
 20
366.2186855609538
 30
0.0
 10
153.4934482999108
 20
366.6176714146322
 30
0.0
 10
153.7413427238246
 20
367.4321206445291
 30
0.0
 10
153.8464170876269
 20
367.850005038271
 30
0.0
 10
154.0973054872107
 20
369.1090348696251
 30
0.0
 10
154.1802262335009
 20
369.9534509533231
 30
0.0
 10
154.1809547861436
 20
371.2275085809327
 30
0.0
 10
154.1604411883963
 20
371.653442026872
 30
0.0
 10
154.0765403608457
 20
372.5078849376515
 30
0.0
 10
154.0134096655568
 20
372.9322331714128
 30
0.0
 10
153.7642233565095
 20
374.1834951400184
 30
0.0
 10
153.5184112972006
 20
374.9945457564344
 30
0.0
 10
153.0292273201432
 20
376.1763068759912
 30
0.0
 10
152.8449139801952
 20
376.5659543509631
 30
0.0
 10
152.4429103368461
 20
377.3175257174709
 30
0.0
 10
152.2247113462786
 20
377.6811437168295
 30
0.0
 10
151.5195983714557
 20
378.7363738917109
 30
0.0
 10
150.9810245198312
 20
379.3943616935775
 30
0.0
 10
149.7706444543195
 20
380.6054616071893
 30
0.0
 10
149.1157375874198
 20
381.1423120077108
 30
0.0
 10
148.0610358471016
 20
381.848379790886
 30
0.0
 10
147.6973222974383
 20
382.0670768021184
 30
0.0
 10
146.9448900972612
 20
382.4702934170884
 30
0.0
 10
146.555720157039
 20
382.6546838330527
 30
0.0
 10
145.3763561681328
 20
383.1439979987011
 30
0.0
 10
144.5660967741715
 20
383.3905265447951
 30
0.0
 10
143.3145819165773
 20
383.6409857122567
 30
0.0
 10
142.8893033626178
 20
383.7046185709214
 30
0.0
 10
142.0359313585904
 20
383.7891799532449
 30
0.0
 10
141.6103312052801
 20
383.8100899695327
 30
0.0
 10
140.3366940565107
 20
383.8105868279901
 30
0.0
 10
139.4917908944862
 20
383.7285365998359
 30
0.0
 10
138.2308855842656
 20
383.4784102323272
 30
0.0
 10
137.8137378431503
 20
383.3738723040075
 30
0.0
 10
136.9995715873169
 20
383.1268720456282
 30
0.0
 10
136.6004574512795
 20
382.9840221189767
 30
0.0
 10
135.817915545366
 20
382.6601388617415
 30
0.0
 10
135.4344877253914
 20
382.4791058188096
 30
0.0
 10
134.6835204011072
 20
382.0782481581725
 30
0.0
 10
134.3141299862512
 20
381.8570585854553
 30
0.0
 10
133.2504468553148
 20
381.146508694272
 30
0.0
 10
132.5966678546961
 20
380.6098560682674
 30
0.0
 10
131.397214131236
 20
379.4126474413586
 30
0.0
 10
130.8483191172924
 20
378.7450129365373
 30
0.0
 10
129.9052942773608
 20
377.3358716788674
 30
0.0
 10
129.505143558836
 20
376.5902770066077
 30
0.0
 10
129.0137807755765
 20
375.4089118282628
 30
0.0
 10
128.8679859435444
 20
375.002938249574
 30
0.0
 10
128.6196840824356
 20
374.1869974876496
 30
0.0
 10
128.5162473204086
 20
373.7751986337344
 30
0.0
 10
128.3500311240665
 20
372.9440734841572
 30
0.0
 10
128.287252609769
 20
372.5247470389374
 30
0.0
 10
128.2027707879335
 20
371.6784812814931
 30
0.0
 10
128.1810678022706
 20
371.2503635529291
 30
0.0
 10
128.180019483622
 20
369.9617705790673
 30
0.0
 10
128.2636483713582
 20
369.116403207799
 30
0.0
 10
128.5109193574208
 20
367.8681088097109
 30
0.0
 10
128.6137977423835
 20
367.4553272709592
 30
0.0
 10
128.8614959369767
 20
366.6365530395836
 30
0.0
 10
129.006476691654
 20
366.2310636302504
 30
0.0
 10
129.494741420746
 20
365.0515850515591
 30
0.0
 10
129.8933712309565
 20
364.3049967148211
 30
0.0
 10
130.6007530815688
 20
363.2442104383287
 30
0.0
 10
130.8564620105266
 20
362.8987483357697
 30
0.0
 10
131.3975932929787
 20
362.2386353132497
 30
0.0
 10
131.6824971220437
 20
361.9241540465779
 30
0.0
 10
132.5791736178257
 20
361.0261227443584
 30
0.0
 10
133.2324944952076
 20
360.4875366780179
 30
0.0
 10
134.2991321390517
 20
359.7727289857308
 30
0.0
 10
134.666126153316
 20
359.5523571391014
 30
0.0
 10
135.4143536459234
 20
359.1513868666529
 30
0.0
 10
135.7968316313894
 20
358.9699459039097
 30
0.0
 10
136.5784173601437
 20
358.6448132259646
 30
0.0
 10
136.9775246033689
 20
358.5011205250812
 30
0.0
 10
137.7927516376637
 20
358.2522574299057
 30
0.0
 10
138.2108467444166
 20
358.1467967784351
 30
0.0
 10
139.4703900843457
 20
357.8948357253954
 30
0.0
 10
140.3203418726072
 20
357.8102565782256
 30
0.0
 10
141.1807140607425
 20
357.8102565782256
 30
0.0
  0
LINE
  5
C3
330
1F
100
AcDbEntity
  8
0
  6
Continuous
 62
     7
370
    25
100
AcDbLine
 10
171.1807140607
 20
450.1827959102
 30
0.0
 11
111.1807140607
 21
450.1827959102
 31
0.0
  0
LINE
  5
C4
330
1F
100
AcDbEntity
  8
0
  6
Continuous
 62
     7
370
    25
100
AcDbLine
 10
111.1807140607
 20
291.4377172463
 30
0.0
 11
171.1807140607
 21
291.4377172463
 31
0.0
  0
LINE
  5
C5
330
1F
100
AcDbEntity
  8
0
  6
Continuous
 62
     7
370
    25
100
AcDbLine
 10
211.1807140607
 20
472.3434871894
 30
0.0
 11
71.1807140607
 21
472.3434871894
 31
0.0
  0
LINE
  5
C6
330
1F
100
AcDbEntity
  8
0
  6
Continuous
 62
     7
370
    25
100
AcDbLine
 10
71.1807140607
 20
472.3434871894
 30
0.0
 11
71.1807140607
 21
457.3434871894
 31
0.0
  0
LINE
  5
C7
330
1F
100
AcDbEntity
  8
0
  6
Continuous
 62
     7
370
    25
100
AcDbLine
 10
211.1807140607
 20
472.3434871894
 30
0.0
 11
211.1807140607
 21
457.3434871894
 31
0.0
  0
INSERT
  5
D3
330
1F
100
AcDbEntity
  8
FORMAT
100
AcDbBlockReference
  2
SW_CENTERMARKSYMBOL_0
 10
141.1807140607
 20
370.8102565782
 30
0.0
  0
LINE
  5
D4
330
1F
100
AcDbEntity
  8
0
  6
Continuous
 62
     7
370
    25
100
AcDbLine
 10
-73.5918912439
 20
177.2384285714
 30
0.0
 11
-73.5918912439
 21
161.9563621261
 31
0.0
  0
LINE
  5
D5
330
1F
100
AcDbEntity
  8
0
  6
Continuous
 62
     7
370
    25
100
AcDbLine
 10
-59.5918912439
 20
161.9632575742
 30
0.0
 11
-59.5918912439
 21
177.2384285714
 31
0.0
  0
LINE
  5
D6
330
1F
100
AcDbEntity
  8
0
  6
Continuous
 62
     7
370
    25
100
AcDbLine
 10
-82.5918912439
 20
210.2384285714
 30
0.0
 11
-82.5918912439
 21
160.7545089306
 31
0.0
  0
LINE
  5
D7
330
1F
100
AcDbEntity
  8
0
  6
Continuous
 62
     7
370
    25
100
AcDbLine
 10
-50.5918912439
 20
160.7632181055
 30
0.0
 11
-50.5918912439
 21
210.2384285714
 31
0.0
  0
LINE
  5
D8
330
1F
100
AcDbEntity
  8
0
  6
Continuous
 62
     7
370
    25
100
AcDbLine
 10
-168.125121855
 20
66.2384285714
 30
0.0
 11
-153.125121855
 21
66.2384285714
 31
0.0
  0
LINE
  5
D9
330
1F
100
AcDbEntity
  8
0
  6
Continuous
 62
     7
370
    25
100
AcDbLine
 10
-168.125121855
 20
73.2384285714
 30
0.0
 11
-168.125121855
 21
66.2384285714
 31
0.0
  0
LINE
  5
DA
330
1F
100
AcDbEntity
  8
0
  6
Continuous
 62
     7
370
    25
100
AcDbLine
 10
-146.5668873364
 20
73.2384285714
 30
0.0
 11
-168.125121855
 21
73.2384285714
 31
0.0
  0
ARC
  5
DB
330
1F
100
AcDbEntity
  8
0
  6
Continuous
 62
     7
370
    25
100
AcDbCircle
 10
-66.5918912439
 20
75.2384285714
 30
0.0
 40
80.0
100
AcDbArc
 50
181.4325437376
 51
178.5674562624
  0
LINE
  5
DC
330
1F
100
AcDbEntity
  8
0
  6
Continuous
 62
     7
370
    25
100
AcDbLine
 10
-168.125121855
 20
77.2384285714
 30
0.0
 11
-146.5668873364
 21
77.2384285714
 31
0.0
  0
LINE
  5
DD
330
1F
100
AcDbEntity
  8
0
  6
Continuous
 62
     7
370
    25
100
AcDbLine
 10
-168.125121855
 20
84.2384285714
 30
0.0
 11
-168.125121855
 21
77.2384285714
 31
0.0
  0
LINE
  5
DE
330
1F
100
AcDbEntity
  8
0
  6
Continuous
 62
     7
370
    25
100
AcDbLine
 10
-153.125121855
 20
84.2384285714
 30
0.0
 11
-168.125121855
 21
84.2384285714
 31
0.0
  0
ARC
  5
DF
330
1F
100
AcDbEntity
  8
0
  6
Continuous
 62
     7
370
    25
100
AcDbCircle
 10
-66.5918912439
 20
75.2384285714
 30
0.0
 40
87.00000000000001
100
AcDbArc
 50
185.9377724516
 51
174.0622275484
  0
LINE
  5
E0
330
1F
100
AcDbEntity
  8
0
  6
Continuous
 62
     7
370
    25
100
AcDbLine
 10
-59.5918912439
 20
177.2384285714
 30
0.0
 11
-73.5918912439
 21
177.2384285714
 31
0.0
  0
LINE
  5
E1
330
1F
100
AcDbEntity
  8
0
  6
Continuous
 62
     7
370
    25
100
AcDbLine
 10
-82.5918912439
 20
210.2384285714
 30
0.0
 11
-50.5918912439
 21
210.2384285714
 31
0.0
  0
LINE
  5
E2
330
1F
100
AcDbEntity
  8
0
  6
Continuous
 62
     7
370
    25
100
AcDbLine
 10
211.1807140607
 20
-70.8087652461
 30
0.0
 11
71.1807140607
 21
-70.8087652461
 31
0.0
  0
CIRCLE
  5
E3
330
1F
100
AcDbEntity
  8
0
  6
Continuous
 62
     7
370
    25
100
AcDbCircle
 10
141.1807140607
 20
-157.8087652461
 30
0.0
 40
16.0
  0
CIRCLE
  5
E4
330
1F
100
AcDbEntity
  8
0
  6
Continuous
 62
     7
370
    25
100
AcDbCircle
 10
141.1807140607
 20
-157.8087652461
 30
0.0
 40
13.0
  0
CIRCLE
  5
E5
330
1F
100
AcDbEntity
  8
0
  6
Continuous
 62
     7
370
    25
100
AcDbCircle
 10
81.1807140607
 20
-157.8087652461
 30
0.0
 40
4.599999999999994
  0
CIRCLE
  5
E6
330
1F
100
AcDbEntity
  8
0
  6
Continuous
 62
     7
370
    25
100
AcDbCircle
 10
81.1807140607
 20
-157.8087652461
 30
0.0
 40
7.0
  0
CIRCLE
  5
E7
330
1F
100
AcDbEntity
  8
0
  6
Continuous
 62
     7
370
    25
100
AcDbCircle
 10
201.1807140607
 20
-157.8087652461
 30
0.0
 40
4.599999999999994
  0
CIRCLE
  5
E8
330
1F
100
AcDbEntity
  8
0
  6
Continuous
 62
     7
370
    25
100
AcDbCircle
 10
201.1807140607
 20
-157.8087652461
 30
0.0
 40
7.0
  0
CIRCLE
  5
E9
330
1F
100
AcDbEntity
  8
0
  6
Continuous
 62
     7
370
    25
100
AcDbCircle
 10
81.1807140607
 20
-157.8087652461
 30
0.0
 40
1.500000000000028
  0
CIRCLE
  5
EA
330
1F
100
AcDbEntity
  8
0
  6
Continuous
 62
     7
370
    25
100
AcDbCircle
 10
81.1807140607
 20
-157.8087652461
 30
0.0
 40
2.000000000000028
  0
CIRCLE
  5
EB
330
1F
100
AcDbEntity
  8
0
  6
Continuous
 62
     7
370
    25
100
AcDbCircle
 10
201.1807140607
 20
-157.8087652461
 30
0.0
 40
1.500000000000028
  0
CIRCLE
  5
EC
330
1F
100
AcDbEntity
  8
0
  6
Continuous
 62
     7
370
    25
100
AcDbCircle
 10
201.1807140607
 20
-157.8087652461
 30
0.0
 40
2.000000000000028
  0
LINE
  5
ED
330
1F
100
AcDbEntity
  8
0
  6
Continuous
 62
     7
370
    25
100
AcDbLine
 10
211.1807140607
 20
-70.8087652461
 30
0.0
 11
211.1807140607
 21
-244.3419958572
 31
0.0
  0
LINE
  5
EE
330
1F
100
AcDbEntity
  8
0
  6
Continuous
 62
     7
370
    25
100
AcDbLine
 10
211.1807140607
 20
-244.3419958572
 30
0.0
 11
71.1807140607
 21
-244.3419958572
 31
0.0
  0
LINE
  5
EF
330
1F
100
AcDbEntity
  8
0
  6
Continuous
 62
     7
370
    25
100
AcDbLine
 10
71.1807140607
 20
-70.8087652461
 30
0.0
 11
71.1807140607
 21
-244.3419958572
 31
0.0
  0
LINE
  5
F0
330
1F
100
AcDbEntity
  8
0
  6
Continuous
 62
     7
370
    25
100
AcDbLine
 10
211.1807140607
 20
-259.3419958572
 30
0.0
 11
71.1807140607
 21
-259.3419958572
 31
0.0
  0
LINE
  5
F1
330
1F
100
AcDbEntity
  8
0
  6
Continuous
 62
     7
370
    25
100
AcDbLine
 10
71.1807140607
 20
-244.3419958572
 30
0.0
 11
71.1807140607
 21
-259.3419958572
 31
0.0
  0
LINE
  5
F2
330
1F
100
AcDbEntity
  8
0
  6
Continuous
 62
     7
370
    25
100
AcDbLine
 10
211.1807140607
 20
-244.3419958572
 30
0.0
 11
211.1807140607
 21
-259.3419958572
 31
0.0
  0
INSERT
  5
FE
330
1F
100
AcDbEntity
  8
FORMAT
100
AcDbBlockReference
  2
SW_CENTERMARKSYMBOL_1
 10
141.1807140607
 20
-157.8087652461
 30
0.0
  0
INSERT
  5
10A
330
1F
100
AcDbEntity
  8
FORMAT
100
AcDbBlockReference
  2
SW_CENTERMARKSYMBOL_2
 10
81.1807140607
 20
-157.8087652461
 30
0.0
  0
INSERT
  5
116
330
1F
100
AcDbEntity
  8
FORMAT
100
AcDbBlockReference
  2
SW_CENTERMARKSYMBOL_3
 10
201.1807140607
 20
-157.8087652461
 30
0.0
  0
LINE
  5
117
330
1F
100
AcDbEntity
  8
0
  6
Continuous
 62
     7
370
    25
100
AcDbLine
 10
472.8064487491
 20
-225.1166821989
 30
0.0
 11
501.0907199966
 21
-208.7885199625
 31
0.0
  0
LINE
  5
118
330
1F
100
AcDbEntity
  8
0
  6
Continuous
 62
     7
370
    25
100
AcDbLine
 10
402.0957706304
 20
-265.93708779
 30
0.0
 11
430.3800418779
 21
-249.6089255536
 31
0.0
  0
LINE
  5
119
330
1F
100
AcDbEntity
  8
0
  6
Continuous
 62
     7
370
    25
100
AcDbLine
 10
414.0977902572
 20
-58.0960179082
 30
0.0
 11
315.1028408911
 21
-115.2445857358
 31
0.0
  0
LINE
  5
11A
330
1F
100
AcDbEntity
  8
0
  6
Continuous
 62
     7
370
    25
100
AcDbLine
 10
443.523187315
 20
-54.2371466821
 30
0.0
 11
443.523187315
 21
-56.1634131419
 31
0.0
  0
LINE
  5
11B
330
1F
100
AcDbEntity
  8
0
  6
Continuous
 62
     7
370
    25
100
AcDbLine
 10
457.523187315
 20
-62.3622391296
 30
0.0
 11
457.523187315
 21
-54.2371466821
 31
0.0
  0
LINE
  5
11C
330
1F
100
AcDbEntity
  8
0
  6
Continuous
 62
     7
370
    25
100
AcDbLine
 10
392.0967804438
 20
-51.7835432446
 30
0.0
 11
392.0967804438
 21
-70.796930527
 31
0.0
  0
LINE
  5
11D
330
1F
100
AcDbEntity
  8
0
  6
Continuous
 62
     7
370
    25
100
AcDbLine
 10
424.0967804438
 20
-54.5203885753
 30
0.0
 11
424.0967804438
 21
-51.7835432446
 31
0.0
  0
LINE
  5
11E
330
1F
100
AcDbEntity
  8
0
  6
Continuous
 62
     7
370
    25
100
AcDbLine
 10
385.799419246
 20
-99.3448596971
 30
0.0
 11
396.4060209638
 21
-105.4679205357
 31
0.0
  0
LINE
  5
11F
330
1F
100
AcDbEntity
  8
0
  6
Continuous
 62
     7
370
    25
100
AcDbLine
 10
385.799419246
 20
-93.6290740139
 30
0.0
 11
385.799419246
 21
-99.3448596971
 31
0.0
  0
LINE
  5
120
330
1F
100
AcDbEntity
  8
0
  6
Continuous
 62
     7
370
    25
100
AcDbLine
 10
401.0433930645
 20
-102.4292327826
 30
0.0
 11
385.799419246
 21
-93.6290740139
 31
0.0
  0
LWPOLYLINE
  5
121
330
1F
100
AcDbEntity
  8
0
  6
Continuous
 62
     7
370
    25
100
AcDbPolyline
 90
      119
 70
   128
 43
0.0
 10
401.0433930645
 20
-99.1630695351
 10
401.1969415202
 20
-95.8060641234
 10
401.5078204191
 20
-92.5540516697
 10
401.9751625085
 20
-89.4161042473
 10
402.5976640537
 20
-86.4009757245
 10
403.3735884747
 20
-83.5170773443
 10
404.3007711909
 20
-80.7724542595
 10
405.3766256595
 20
-78.1747630897
 10
406.5981505911
 20
-75.7312505611
 10
407.9619383222
 20
-73.4487332912
 10
409.464184322
 20
-71.3335787722
 10
411.1006978051
 20
-69.3916876077
 10
412.8669134231
 20
-67.6284770523
 10
414.7579040001
 20
-66.0488658986
 10
416.7683942778
 20
-64.657260756
 10
418.8927756325
 20
-63.457543757
 10
421.1251217203
 20
-62.4530617279
 10
423.4592050107
 20
-61.6466168519
 10
425.8885141589
 20
-61.0404588518
 10
428.4062721702
 20
-60.6362787144
 10
431.0054553062
 20
-60.4352039729
 10
433.6788126783
 20
-60.4377955613
 10
436.4188864757
 20
-60.6440462499
 10
439.21803277
 20
-61.0533806654
 10
442.0684428395
 20
-61.6646568958
 10
444.962164953
 20
-62.4761696763
 10
447.8911265525
 20
-63.4856551461
 10
450.8471567732
 20
-64.6902971639
 10
453.8220092374
 20
-66.0867351645
 10
456.8073850596
 20
-67.6710735329
 10
459.7949559973
 20
-69.4388924726
 10
462.7763876843
 20
-71.3852603348
 10
465.7433628812
 20
-73.5047473766
 10
468.6876046772
 20
-75.7914409079
 10
471.6008995808
 20
-78.2389617862
 10
474.4751204321
 20
-80.8404822119
 10
477.3022490755
 20
-83.5887447762
 10
480.0743987274
 20
-86.4760827069
 10
482.7838359783
 20
-89.4944412557
 10
485.4230023658
 20
-92.6354001689
 10
487.9845354609
 20
-95.8901971772
 10
490.4612894068
 20
-99.2497524392
 10
492.846354853
 20
-102.7046938718
 10
495.1330782308
 20
-106.2453832947
 10
497.3150803145
 20
-109.8619433184
 10
499.3862740168
 20
-113.5442848988
 10
501.3408813708
 20
-117.2821354821
 10
503.1734496479
 20
-121.0650676623
 10
504.8788665695
 20
-124.88252827
 10
506.4523745686
 20
-128.7238678129
 10
507.8895840618
 20
-132.5783701839
 10
509.1864856949
 20
-136.4352825556
 10
510.3394615277
 20
-140.2838453779
 10
511.3452951268
 20
-144.113322393
 10
512.2011805387
 20
-147.9130305865
 10
512.9047301171
 20
-151.6723699894
 10
513.4539811841
 20
-155.3808532487
 10
513.8474015051
 20
-159.0281348839
 10
514.0838935634
 20
-162.6040401472
 10
514.1627976218
 20
-166.0985934082
 10
514.0838935634
 20
-169.5020459825
 10
513.8474015051
 20
-172.8049033274
 10
513.4539811841
 20
-175.9979515286
 10
512.9047301171
 20
-179.0722830043
 10
512.2011805387
 20
-182.0193213542
 10
511.3452951268
 20
-184.8308452852
 10
510.3394615277
 20
-187.4990115459
 10
509.1864856949
 20
-190.0163768071
 10
507.8895840618
 20
-192.3759184257
 10
506.4523745686
 20
-194.5710540364
 10
504.8788665695
 20
-196.5956599137
 10
503.1734496479
 20
-198.4440880559
 10
501.3408813708
 20
-200.1111819402
 10
499.3862740168
 20
-201.5922909086
 10
497.3150803145
 20
-202.8832831416
 10
495.1330782308
 20
-203.9805571841
 10
492.846354853
 20
-204.8810519931
 10
490.4612894068
 20
-205.5822554764
 10
487.9845354609
 20
-206.0822115008
 10
485.4230023658
 20
-206.3795253492
 10
482.7838359783
 20
-206.4733676112
 10
480.0743987274
 20
-206.3634764968
 10
477.3022490755
 20
-206.0501585672
 10
474.4751204321
 20
-205.5342878789
 10
471.6008995808
 20
-204.817303546
 10
468.6876046772
 20
-203.9012057252
 10
465.7433628812
 20
-202.788550036
 10
462.7763876843
 20
-201.4824404314
 10
459.7949559973
 20
-199.986520539
 10
456.8073850596
 20
-198.304963496
 10
453.8220092374
 20
-196.4424603083
 10
450.8471567732
 20
-194.4042067631
 10
447.8911265525
 20
-192.195888935
 10
444.962164953
 20
-189.8236673237
 10
442.0684428395
 20
-187.2941596676
 10
439.21803277
 20
-184.614422483
 10
436.4188864757
 20
-181.7919313784
 10
433.6788126783
 20
-178.8345602001
 10
431.0054553062
 20
-175.7505590666
 10
428.4062721702
 20
-172.5485313533
 10
425.8885141589
 20
-169.237409692
 10
423.4592050107
 20
-165.8264310518
 10
421.1251217203
 20
-162.3251109707
 10
418.8927756325
 20
-158.7432170103
 10
416.7683942778
 20
-155.0907415077
 10
414.7579040001
 20
-151.3778736998
 10
412.8669134231
 20
-147.6149712987
 10
411.1006978051
 20
-143.812531597
 10
409.464184322
 20
-139.9811621836
 10
407.9619383222
 20
-136.1315513521
 10
406.5981505911
 20
-132.2744382841
 10
405.3766256595
 20
-128.4205830895
 10
404.3007711909
 20
-124.5807367902
 10
403.3735884747
 20
-120.7656113275
 10
402.5976640537
 20
-116.9858496798
 10
401.9751625085
 20
-113.2519961714
 10
401.5078204191
 20
-109.5744670579
 10
401.1969415202
 20
-105.9635214678
 10
401.0433930645
 20
-102.4292327826
  0
LINE
  5
122
330
1F
100
AcDbEntity
  8
0
  6
Continuous
 62
     7
370
    25
100
AcDbLine
 10
385.799419246
 20
-90.3629107663
 30
0.0
 11
401.0433930645
 21
-99.1630695351
 31
0.0
  0
LINE
  5
123
330
1F
100
AcDbEntity
  8
0
  6
Continuous
 62
     7
370
    25
100
AcDbLine
 10
385.799419246
 20
-84.6471250831
 30
0.0
 11
385.799419246
 21
-90.3629107663
 31
0.0
  0
LINE
  5
124
330
1F
100
AcDbEntity
  8
0
  6
Continuous
 62
     7
370
    25
100
AcDbLine
 10
396.4060209638
 20
-90.7701859218
 30
0.0
 11
385.799419246
 21
-84.6471250831
 31
0.0
  0
LWPOLYLINE
  5
125
330
1F
100
AcDbEntity
  8
0
  6
Continuous
 62
     7
370
    25
100
AcDbPolyline
 90
      121
 70
   128
 43
0.0
 10
396.4060209638
 20
-105.4679205357
 10
396.8065238294
 20
-109.2657769002
 10
397.3628327961
 20
-113.1256004557
 10
398.0735219784
 20
-117.0374980208
 10
398.9367697964
 20
-120.9914429421
 10
399.9503636446
 20
-124.977300794
 10
401.1117055628
 20
-128.9848553544
 10
402.4178188951
 20
-133.0038347897
 10
403.8653559194
 20
-137.0239379833
 10
405.4506064283
 20
-141.0348609381
 10
407.1695072384
 20
-145.026323187
 10
409.0176526047
 20
-148.9880941432
 10
410.9903055136
 20
-152.910019322
 10
413.0824098236
 20
-156.7820463681
 10
415.2886032255
 20
-160.594250821
 10
417.6032309864
 20
-164.3368615526
 10
420.020360443
 20
-168.0002858116
 10
422.5337962086
 20
-171.5751338111
 10
425.1370960518
 20
-175.0522427953
 10
427.8235874091
 20
-178.4227005253
 10
430.5863844873
 20
-181.6778681216
 10
433.4184059127
 20
-184.809402207
 10
436.3123928815
 20
-187.8092762917
 10
439.260927765
 20
-190.6698013456
 10
442.2564531217
 20
-193.3836455067
 10
445.2912910678
 20
-195.9438528736
 10
448.357662957
 20
-198.3438613337
 10
451.4477093178
 20
-200.5775193833
 10
454.5535099979
 20
-202.6391018942
 10
457.6671044653
 20
-204.523324788
 10
460.7805122113
 20
-206.2253585801
 10
463.8857532058
 20
-207.7408407577
 10
466.9748683512
 20
-209.0658869619
 10
470.0399398821
 20
-210.1971009434
 10
473.0731116601
 20
-211.131583268
 10
476.0666093092
 20
-211.8669387474
 10
479.0127601431
 20
-212.4012825792
 10
481.9040128308
 20
-212.7332451774
 10
484.732956752
 20
-212.8619756827
 10
487.4923409907
 20
-212.7871441438
 10
490.1750929208
 20
-212.5089423627
 10
492.7743363337
 20
-212.0280834033
 10
495.283409063
 20
-211.3457997635
 10
497.6958800604
 20
-210.4638402166
 10
500.0055658792
 20
-209.3844653286
 10
502.206546523
 20
-208.1104416641
 10
504.2931806197
 20
-206.6450346956
 10
506.2601198809
 20
-204.9920004335
 10
508.10232281
 20
-203.1555757988
 10
509.8150676244
 20
-201.1404677637
 10
511.3939643577
 20
-198.9518412871
 10
512.8349661121
 20
-196.5953060758
 10
514.1343794307
 20
-194.0769022066
 10
515.2888737643
 20
-191.4030846448
 10
516.2954900083
 20
-188.5807066989
 10
517.151648087
 20
-185.6170024554
 10
517.8551535664
 20
-182.5195682368
 10
518.4042032795
 20
-179.296343131
 10
518.7973899471
 20
-175.9555886428
 10
519.0337057858
 20
-172.5058675188
 10
519.1125450901
 20
-168.9560217996
 10
519.0337057858
 20
-165.3151501572
 10
518.7973899471
 20
-161.5925845735
 10
518.4042032795
 20
-157.7978664217
 10
517.8551535664
 20
-153.9407220106
 10
517.151648087
 20
-150.0310376546
 10
516.2954900083
 20
-146.0788343344
 10
515.2888737643
 20
-142.0942420116
 10
514.1343794307
 20
-138.0874736648
 10
512.8349661121
 20
-134.0687991122
 10
511.3939643577
 20
-130.0485186891
 10
509.8150676244
 20
-126.0369368468
 10
508.10232281
 20
-122.0443357412
 10
506.2601198809
 20
-118.0809488782
 10
504.2931806197
 20
-114.1569348842
 10
502.206546523
 20
-110.2823514684
 10
500.0055658792
 20
-106.4671296436
 10
497.6958800604
 20
-102.7210482717
 10
495.283409063
 20
-99.0537089996
 10
492.7743363337
 20
-95.4745116491
 10
490.1750929208
 20
-91.9926301236
 10
487.4923409907
 20
-88.6169888949
 10
484.732956752
 20
-85.3562401281
 10
481.9040128308
 20
-82.2187415058
 10
479.0127601431
 20
-79.2125348056
 10
476.0666093092
 20
-76.3453252887
 10
473.0731116601
 20
-73.6244619502
 10
470.0399398821
 20
-71.0569186826
 10
466.9748683512
 20
-68.6492764012
 10
463.8857532058
 20
-66.4077061761
 10
460.7805122113
 20
-64.3379534153
 10
457.6671044653
 20
-62.4453231384
 10
454.5535099979
 20
-60.7346663794
 10
451.4477093178
 20
-59.2103677526
 10
448.357662957
 20
-57.8763342145
 10
445.2912910678
 20
-56.7359850499
 10
442.2564531217
 20
-55.7922431079
 10
439.260927765
 20
-55.0475273098
 10
436.3123928815
 20
-54.5037464499
 10
433.4184059127
 20
-54.1622943024
 10
430.5863844873
 20
-54.0240460494
 10
427.8235874091
 20
-54.0893560372
 10
425.1370960518
 20
-54.3580568688
 10
422.5337962086
 20
-54.8294598324
 10
420.020360443
 20
-55.5023566666
 10
417.6032309864
 20
-56.375022658
 10
415.2886032255
 20
-57.4452210608
 10
413.0824098236
 20
-58.7102088309
 10
410.9903055136
 20
-60.1667436558
 10
409.0176526047
 20
-61.8110922656
 10
407.1695072384
 20
-63.6390400015
 10
405.4506064283
 20
-65.6459016186
 10
403.8653559194
 20
-67.8265332947
 10
402.4178188951
 20
-70.1753458144
 10
401.1117055628
 20
-72.6863188951
 10
399.9503636446
 20
-75.3530166176
 10
398.9367697964
 20
-78.1686039224
 10
398.0735219784
 20
-81.125864128
 10
397.3628327961
 20
-84.2172174289
 10
396.8065238294
 20
-87.4347403233
 10
396.4060209638
 20
-90.7701859218
  0
LINE
  5
126
330
1F
100
AcDbEntity
  8
0
  6
Continuous
 62
     7
370
    25
100
AcDbLine
 10
396.4060209638
 20
-105.4679205357
 30
0.0
 11
297.4110715977
 21
-162.6164883633
 31
0.0
  0
LWPOLYLINE
  5
127
330
1F
100
AcDbEntity
  8
0
  6
Continuous
 62
     7
370
    25
100
AcDbPolyline
 90
       46
 70
   128
 43
0.0
 10
297.4110715977
 20
-162.6164883633
 10
297.8115744633
 20
-166.4143447278
 10
298.3678834299
 20
-170.2741682833
 10
299.0785726122
 20
-174.1860658484
 10
299.9418204303
 20
-178.1400107697
 10
300.9554142785
 20
-182.1258686216
 10
302.1167561967
 20
-186.133423182
 10
303.4228695289
 20
-190.1524026173
 10
304.8704065533
 20
-194.1725058109
 10
306.4556570622
 20
-198.1834287656
 10
308.1745578723
 20
-202.1748910146
 10
310.0227032386
 20
-206.1366619708
 10
311.9953561474
 20
-210.0585871496
 10
314.0874604575
 20
-213.9306141957
 10
316.2936538594
 20
-217.7428186486
 10
318.6082816202
 20
-221.4854293802
 10
321.0254110769
 20
-225.1488536392
 10
323.5388468425
 20
-228.7237016387
 10
326.1421466857
 20
-232.2008106229
 10
328.8286380429
 20
-235.5712683529
 10
331.5914351211
 20
-238.8264359492
 10
334.4234565466
 20
-241.9579700346
 10
337.3174435154
 20
-244.9578441193
 10
340.2659783989
 20
-247.8183691731
 10
343.2615037555
 20
-250.5322133343
 10
346.2963417017
 20
-253.0924207012
 10
349.3627135909
 20
-255.4924291613
 10
352.4527599516
 20
-257.7260872109
 10
355.5585606318
 20
-259.7876697218
 10
358.6721550992
 20
-261.6718926156
 10
361.7855628452
 20
-263.3739264077
 10
364.8908038397
 20
-264.8894085853
 10
367.979918985
 20
-266.2144547895
 10
371.044990516
 20
-267.345668771
 10
374.078162294
 20
-268.2801510955
 10
377.0716599431
 20
-269.015506575
 10
380.0178107769
 20
-269.5498504068
 10
382.9090634647
 20
-269.881813005
 10
385.7380073859
 20
-270.0105435103
 10
388.4973916246
 20
-269.9357119714
 10
391.1801435546
 20
-269.6575101903
 10
393.7793869676
 20
-269.1766512309
 10
396.2884596969
 20
-268.4943675911
 10
398.7009306943
 20
-267.6124080442
 10
401.0106165131
 20
-266.5330331562
 10
402.0957706304
 20
-265.93708779
  0
ARC
  5
128
330
1F
100
AcDbEntity
  8
0
  6
Continuous
 62
     7
370
    25
100
AcDbCircle
 10
333.0463043956
 20
-144.4635009945
 30
0.0
 40
34.28867001545881
100
AcDbArc
 50
121.5542674927
 51
162.1268990718
  0
LINE
  5
129
330
1F
100
AcDbEntity
  8
0
  6
Continuous
 62
     7
370
    25
100
AcDbLine
 10
325.7730214552
 20
-147.1497098458
 30
0.0
 11
368.1994283264
 21
-122.6574664912
 31
0.0
  0
LWPOLYLINE
  5
12A
330
1F
100
AcDbEntity
  8
0
  6
Continuous
 62
     7
370
    25
100
AcDbPolyline
 90
       55
 70
   128
 43
0.0
 10
446.0716235337
 20
-227.7980380511
 10
445.2887442831
 20
-230.2914952801
 10
444.2261734645
 20
-233.0921125649
 10
443.0140559467
 20
-235.7393055399
 10
441.655552873
 20
-238.2261704548
 10
440.1542071533
 20
-240.546221687
 10
438.5139342242
 20
-242.6934086558
 10
436.7390118376
 20
-244.6621316022
 10
434.8340689046
 20
-246.4472561926
 10
432.8040734237
 20
-248.0441269089
 10
430.6543195241
 20
-249.4485791902
 10
428.3904136595
 20
-250.6569502932
 10
426.018259986
 20
-251.666088845
 10
423.5440449649
 20
-252.4733630613
 10
420.9742212286
 20
-253.0766676103
 10
418.3154907521
 20
-253.4744291032
 10
415.5747873751
 20
-253.6656101973
 10
412.7592587186
 20
-253.6497123016
 10
409.8762475443
 20
-253.426776877
 10
406.9332726047
 20
-252.9973853284
 10
403.9380090353
 20
-252.3626574879
 10
400.8982683377
 20
-251.5242486949
 10
397.8219780075
 20
-250.4843454786
 10
394.7171608602
 20
-249.245659856
 10
391.5919141076
 20
-247.8114222589
 10
388.4543882411
 20
-246.1853731092
 10
385.3127657754
 20
-244.3717530637
 10
382.1752399089
 20
-242.3752919554
 10
379.0499931563
 20
-240.2011964574
 10
375.945176009
 20
-237.8551365051
 10
372.8688856788
 20
-235.3432305085
 10
369.8291449811
 20
-232.6720293962
 10
366.8338814118
 20
-229.8484995306
 10
363.8909064722
 20
-226.8800045401
 10
361.0078952978
 20
-223.774286115
 10
358.1923666413
 20
-220.5394438179
 10
355.4516632644
 20
-217.1839139599
 10
352.7929327879
 20
-213.7164475994
 10
350.2231090516
 20
-210.1460877199
 10
347.7488940305
 20
-206.4821456462
 10
345.376740357
 20
-202.7341767606
 10
343.1128344924
 20
-198.9119555837
 10
340.9630805928
 20
-195.025450282
 10
338.9330851119
 20
-191.0847966721
 10
337.0281421789
 20
-187.1002717869
 10
335.2532197922
 20
-183.0822670731
 10
333.6129468631
 20
-179.0412612914
 10
332.1116011435
 20
-174.9877931881
 10
330.7530980698
 20
-170.9324340106
 10
329.540980552
 20
-166.8857599383
 10
328.4784097334
 20
-162.8583245
 10
327.5681567472
 20
-158.8606310512
 10
326.8125954886
 20
-154.9031053818
 10
326.2136964248
 20
-150.9960685261
 10
325.7730214552
 20
-147.1497098458
  0
LINE
  5
12B
330
1F
100
AcDbEntity
  8
0
  6
Continuous
 62
     7
370
    25
100
AcDbLine
 10
484.3251737092
 20
-196.7329918229
 30
0.0
 11
470.7507563847
 21
-204.569336143
 31
0.0
  0
LWPOLYLINE
  5
12C
330
1F
100
AcDbEntity
  8
0
  6
Continuous
 62
     7
370
    25
100
AcDbPolyline
 90
       45
 70
   128
 43
0.0
 10
368.1994283264
 20
-122.6574664912
 10
368.640103296
 20
-126.5038251714
 10
369.2390023598
 20
-130.4108620271
 10
369.9945636183
 20
-134.3683876965
 10
370.9048166046
 20
-138.3660811453
 10
371.9673874231
 20
-142.3935165836
 10
373.179504941
 20
-146.440190656
 10
374.5380080147
 20
-150.4955498334
 10
376.0393537343
 20
-154.5490179367
 10
377.6796266634
 20
-158.5900237184
 10
379.4545490501
 20
-162.6080284322
 10
381.3594919831
 20
-166.5925533174
 10
383.389487464
 20
-170.5332069273
 10
385.5392413636
 20
-174.419712229
 10
387.8031472282
 20
-178.241933406
 10
390.1753009017
 20
-181.9899022915
 10
392.6495159228
 20
-185.6538443653
 10
395.2193396591
 20
-189.2242042447
 10
397.8780701356
 20
-192.6916706052
 10
400.6187735125
 20
-196.0472004632
 10
403.434302169
 20
-199.2820427604
 10
406.3173133434
 20
-202.3877611854
 10
409.260288283
 20
-205.3562561759
 10
412.2555518523
 20
-208.1797860415
 10
415.29529255
 20
-210.8509871538
 10
418.3715828802
 20
-213.3628931504
 10
421.4764000275
 20
-215.7089531027
 10
424.6016467801
 20
-217.8830486007
 10
427.7391726466
 20
-219.879509709
 10
430.8807951123
 20
-221.6931297545
 10
434.0183209788
 20
-223.3191789043
 10
437.1435677314
 20
-224.7534165013
 10
440.2483848787
 20
-225.9921021239
 10
443.3246752089
 20
-227.0320053402
 10
446.3644159065
 20
-227.8704141332
 10
449.3596794759
 20
-228.5051419737
 10
452.3026544154
 20
-228.9345335223
 10
455.1856655898
 20
-229.1574689469
 10
458.0011942463
 20
-229.1733668426
 10
460.7418976233
 20
-228.9821857485
 10
463.4006280997
 20
-228.5844242557
 10
465.9704518361
 20
-227.9811197066
 10
468.4446668572
 20
-227.1738454903
 10
470.8168205307
 20
-226.1647069385
 10
472.8064487491
 20
-225.1166821989
  0
SPLINE
  5
12D
330
1F
100
AcDbEntity
  8
0
  6
Continuous
 62
     7
370
    25
100
AcDbSpline
210
0.0
220
0.0
230
1.0
 70
     8
 71
     3
 72
    25
 73
    21
 74
     0
 42
0.00000001
 43
0.00000001
 40
0.0
 40
0.0
 40
0.0
 40
0.0
 40
0.0583838773626485
 40
0.1167699905768519
 40
0.1751298397281434
 40
0.2334928270288465
 40
0.2923425251284213
 40
0.3511914597210191
 40
0.4103756110003604
 40
0.4695561488807297
 40
0.5282152495796665
 40
0.5868735372878154
 40
0.6449775309097885
 40
0.7030845331641515
 40
0.7614463966717396
 40
0.8198104917636433
 40
0.8788501784361377
 40
0.9378877501740799
 40
0.9969861115284584
 40
1.0
 40
1.0
 40
1.0
 40
1.0
 10
417.2891685992608
 20
-102.8681819535527
 30
0.0
 10
417.7767384681898
 20
-102.5524545920256
 30
0.0
 10
418.7518968778781
 20
-101.9209877779706
 30
0.0
 10
419.851515800523
 20
-100.7557741905264
 30
0.0
 10
420.6341901993493
 20
-99.47335286202815
 30
0.0
 10
421.0706043819138
 20
-98.10217896841446
 30
0.0
 10
421.1384711225925
 20
-96.69235820103845
 30
0.0
 10
420.8448447923786
 20
-95.29130258540746
 30
0.0
 10
420.180260211398
 20
-93.95641874158451
 30
0.0
 10
419.1774505015773
 20
-92.7352937317563
 30
0.0
 10
417.8551746568691
 20
-91.6790954094599
 30
0.0
 10
416.2716881508244
 20
-90.81400576890451
 30
0.0
 10
414.4611652434529
 20
-90.16913403965043
 30
0.0
 10
412.4831042431301
 20
-89.7442187830434
 30
0.0
 10
410.3798419587156
 20
-89.55174235248482
 30
0.0
 10
408.2061482420547
 20
-89.5787550739804
 30
0.0
 10
406.0149243764069
 20
-89.81934709856961
 30
0.0
 10
403.8930323569024
 20
-90.26929079232124
 30
0.0
 10
402.468094741099
 20
-90.65787732036031
 30
0.0
 10
401.8258409798733
 20
-90.9239468278183
 30
0.0
 10
401.7946767375187
 20
-90.93685738609632
 30
0.0
  0
SPLINE
  5
12E
330
1F
100
AcDbEntity
  8
0
  6
Continuous
 62
     7
370
    25
100
AcDbSpline
210
0.0
220
0.0
230
1.0
 70
     8
 71
     3
 72
    15
 73
    11
 74
     0
 42
0.00000001
 43
0.00000001
 40
0.0
 40
0.0
 40
0.0
 40
0.0
 40
0.0823397857222902
 40
0.2049100888600076
 40
0.3274869812292192
 40
0.4514164053902183
 40
0.5753447511349392
 40
0.7000570992977823
 40
0.8247616526916306
 40
0.9999999999999999
 40
0.9999999999999999
 40
0.9999999999999999
 40
0.9999999999999999
 10
401.0651412550382
 20
-103.0205526982833
 30
0.0
 10
401.4728887439574
 20
-103.1861201876019
 30
0.0
 10
402.4876056691223
 20
-103.5981500301744
 30
0.0
 10
404.306156102845
 20
-104.0901990225987
 30
0.0
 10
406.4292219480942
 20
-104.4937996728839
 30
0.0
 10
408.6136024989988
 20
-104.6932520431616
 30
0.0
 10
410.7960836291026
 20
-104.6844307058324
 30
0.0
 10
412.901909926226
 20
-104.4359169389727
 30
0.0
 10
415.17010932958
 20
-103.9109933131553
 30
0.0
 10
416.5076974325807
 20
-103.252752135933
 30
0.0
 10
417.2891685992608
 20
-102.8681819535527
 30
0.0
  0
LINE
  5
12F
330
1F
100
AcDbEntity
  8
0
  6
Continuous
 62
     7
370
    25
100
AcDbLine
 10
401.0433930645
 20
-99.1630695351
 30
0.0
 11
398.2145062034
 21
-100.7961511589
 31
0.0
  0
LWPOLYLINE
  5
130
330
1F
100
AcDbEntity
  8
0
  6
Continuous
 62
     7
370
    25
100
AcDbPolyline
 90
        4
 70
   128
 43
0.0
 10
365.6794953476
 20
-129.8685534675
 10
366.748413515
 20
-130.6533152042
 10
369.6926553111
 20
-132.9400087355
 10
369.7072358105
 20
-132.9517953781
  0
LWPOLYLINE
  5
131
330
1F
100
AcDbEntity
  8
0
  6
Continuous
 62
     7
370
    25
100
AcDbPolyline
 90
       14
 70
   128
 43
0.0
 10
414.0683429585
 20
-209.7958130478
 10
414.459031818
 20
-212.5294210763
 10
414.852452139
 20
-216.1767027115
 10
415.0889441973
 20
-219.7526079748
 10
415.1678482557
 20
-223.2471612358
 10
415.0889441973
 20
-226.6506138101
 10
414.852452139
 20
-229.953471155
 10
414.459031818
 20
-233.1465193562
 10
413.909780751
 20
-236.2208508318
 10
413.2062311726
 20
-239.1678891818
 10
412.3503457607
 20
-241.9794131128
 10
411.3445121616
 20
-244.6475793735
 10
410.1915363288
 20
-247.1649446346
 10
410.1554087722
 20
-247.2366703621
  0
LINE
  5
132
330
1F
100
AcDbEntity
  8
0
  6
Continuous
 62
     7
370
    25
100
AcDbLine
 10
368.8569219018
 20
-128.0342641617
 30
0.0
 11
330.7587162066
 21
-150.027890162
 31
0.0
  0
ARC
  5
133
330
1F
100
AcDbEntity
  8
0
  6
Continuous
 62
     7
370
    25
100
AcDbCircle
 10
437.9157030865
 20
-185.5239293707
 30
0.0
 40
47.76217276697102
100
AcDbArc
 50
334.0603429807
 51
354.2175630029
  0
LINE
  5
134
330
1F
100
AcDbEntity
  8
0
  6
Continuous
 62
     7
370
    25
100
AcDbLine
 10
464.6562009771
 20
-202.331287458
 30
0.0
 11
485.434844681
 21
-190.3360317739
 31
0.0
  0
LWPOLYLINE
  5
135
330
1F
100
AcDbEntity
  8
0
  6
Continuous
 62
     7
370
    25
100
AcDbPolyline
 90
       53
 70
   128
 43
0.0
 10
330.7587162066
 20
-150.027890162
 10
331.2077314898
 20
-153.6808788405
 10
331.8105334464
 20
-157.390718131
 10
332.5654570293
 20
-161.1471607918
 10
333.470417004
 20
-164.9398308544
 10
334.5229137088
 20
-168.7582522837
 10
335.7200399589
 20
-172.5918779147
 10
337.0584890769
 20
-176.4301185857
 10
338.5345640263
 20
-180.2623723874
 10
340.1441876232
 20
-184.0780539473
 10
341.8829137984
 20
-187.8666236683
 10
343.7459398784
 20
-191.6176168413
 10
345.7281198509
 20
-195.3206725503
 10
347.8239785792
 20
-198.9655622909
 10
350.0277269256
 20
-202.542218224
 10
352.3332777417
 20
-206.040760984
 10
354.7342626825
 20
-209.4515269685
 10
357.2240497971
 20
-212.7650950297
 10
359.7957618465
 20
-215.9723124982
 10
362.442295301
 20
-219.0643204641
 10
365.1563399602
 20
-222.0325782467
 10
367.9303991459
 20
-224.8688869854
 10
370.756810409
 20
-227.5654122868
 10
373.6277666945
 20
-230.1147058641
 10
376.5353379062
 20
-232.5097261112
 10
379.4714928107
 20
-234.7438575524
 10
382.4281212215
 20
-236.8109291161
 10
385.3970564005
 20
-238.7052311796
 10
388.370097616
 20
-240.4215313408
 10
391.339032795
 20
-241.9550888709
 10
394.2956612057
 20
-243.3016678088
 10
397.2318161103
 20
-244.4575486618
 10
400.1393873219
 20
-245.4195386797
 10
403.0103436075
 20
-246.1849806736
 10
405.8367548706
 20
-246.7517603552
 10
408.6108140563
 20
-247.1183121775
 10
411.3248587155
 20
-247.2836236586
 10
413.9713921699
 20
-247.2472381784
 10
416.5431042194
 20
-247.0092562402
 10
419.0328913339
 20
-246.5703351929
 10
421.4338762748
 20
-245.931687415
 10
423.7394270909
 20
-245.0950769663
 10
425.9431754372
 20
-244.062814715
 10
428.0390341656
 20
-242.8377519546
 10
430.0212141381
 20
-241.4232725282
 10
431.8842402181
 20
-239.8232834818
 10
433.6229663933
 20
-238.042204272
 10
435.2325899902
 20
-236.0849545593
 10
436.7086649395
 20
-233.9569406183
 10
438.0471140576
 20
-231.6640404055
 10
439.2442403077
 20
-229.2125873226
 10
440.2967370125
 20
-226.6093527226
 10
440.4867105663
 20
-226.0793981333
  0
LINE
  5
136
330
1F
100
AcDbEntity
  8
0
  6
Continuous
 62
     7
370
    25
100
AcDbLine
 10
385.799419246
 20
-99.3448596971
 30
0.0
 11
286.8044698799
 21
-156.4934275246
 31
0.0
  0
LINE
  5
137
330
1F
100
AcDbEntity
  8
0
  6
Continuous
 62
     7
370
    25
100
AcDbLine
 10
286.8044698799
 20
-156.4934275246
 30
0.0
 11
297.4110715977
 21
-162.6164883633
 31
0.0
  0
LINE
  5
138
330
1F
100
AcDbEntity
  8
0
  6
Continuous
 62
     7
370
    25
100
AcDbLine
 10
385.799419246
 20
-93.6290740139
 30
0.0
 11
286.8044698799
 21
-150.7776418414
 31
0.0
  0
LINE
  5
139
330
1F
100
AcDbEntity
  8
0
  6
Continuous
 62
     7
370
    25
100
AcDbLine
 10
286.8044698799
 20
-150.7776418414
 30
0.0
 11
286.8044698799
 21
-156.4934275246
 31
0.0
  0
LINE
  5
13A
330
1F
100
AcDbEntity
  8
0
  6
Continuous
 62
     7
370
    25
100
AcDbLine
 10
385.799419246
 20
-84.6471250831
 30
0.0
 11
286.8044698799
 21
-141.7956929107
 31
0.0
  0
LINE
  5
13B
330
1F
100
AcDbEntity
  8
0
  6
Continuous
 62
     7
370
    25
100
AcDbLine
 10
385.799419246
 20
-90.3629107663
 30
0.0
 11
286.8044698799
 21
-147.5114785939
 31
0.0
  0
LINE
  5
13C
330
1F
100
AcDbEntity
  8
0
  6
Continuous
 62
     7
370
    25
100
AcDbLine
 10
286.8044698799
 20
-141.7956929107
 30
0.0
 11
286.8044698799
 21
-147.5114785939
 31
0.0
  0
LINE
  5
13D
330
1F
100
AcDbEntity
  8
0
  6
Continuous
 62
     7
370
    25
100
AcDbLine
 10
286.8044698799
 20
-147.5114785939
 30
0.0
 11
289.6333567409
 21
-149.1445602177
 31
0.0
  0
LINE
  5
13E
330
1F
100
AcDbEntity
  8
0
  6
Continuous
 62
     7
370
    25
100
AcDbLine
 10
330.7587162066
 20
-150.027890162
 30
0.0
 11
325.7730214552
 21
-147.1497098458
 31
0.0
  0
ARC
  5
13F
330
1F
100
AcDbEntity
  8
0
  6
Continuous
 62
     7
370
    25
100
AcDbCircle
 10
446.9216309208
 20
-54.5113272639
 30
0.0
 40
3.409485875125559
100
AcDbArc
 50
113.2923936062
 51
175.3874654362
  0
LWPOLYLINE
  5
140
330
1F
100
AcDbEntity
  8
0
  6
Continuous
 62
     7
370
    25
100
AcDbPolyline
 90
       15
 70
   128
 43
0.0
 10
457.523187315
 20
-54.2371466821
 10
457.5214249596
 20
-54.1464741505
 10
457.380915104
 20
-53.4265620478
 10
457.0199922347
 20
-52.7327028021
 10
456.4502567096
 20
-52.0871976206
 10
455.6900202974
 20
-51.510793571
 10
454.7637176219
 20
-51.0220167536
 10
453.7011208132
 20
-50.6365768575
 10
452.5363826071
 20
-50.3668622381
 10
451.3069386478
 20
-50.2215417453
 10
450.0523042757
 20
-50.2052860991
 10
448.8128044721
 20
-50.3186177695
 10
447.6282777803
 20
-50.5578941834
 10
446.5367958628
 20
-50.9154247998
 10
445.5734398467
 20
-51.3797182907
  0
LWPOLYLINE
  5
141
330
1F
100
AcDbEntity
  8
0
  6
Continuous
 62
     7
370
    25
100
AcDbPolyline
 90
       21
 70
   128
 43
0.0
 10
396.7830719449
 20
-45.25227835
 10
398.2005899576
 20
-44.525647262
 10
399.757028792
 20
-43.9009011241
 10
401.4305394587
 20
-43.3868100025
 10
403.1976295363
 20
-42.9905906099
 10
405.0334929535
 20
-42.7178049978
 10
406.9123582122
 20
-42.5722824784
 10
408.8078501628
 20
-42.5560658688
 10
410.6933602533
 20
-42.6693828147
 10
412.5424200549
 20
-42.9106425946
 10
414.3290728214
 20
-43.2764584499
 10
416.0282378643
 20
-43.761695128
 10
417.616062631
 20
-44.3595409695
 10
419.0702575423
 20
-45.0616035293
 10
420.3704088892
 20
-45.8580273881
 10
421.498265397
 20
-46.7376325006
 10
422.4379944324
 20
-47.6880711392
 10
423.1764042597
 20
-48.6960012288
 10
423.7031292236
 20
-49.7472736403
 10
424.0107752602
 20
-50.8271308135
 10
424.0967804438
 20
-51.7835432446
  0
ARC
  5
142
330
1F
100
AcDbEntity
  8
0
  6
Continuous
 62
     7
370
    25
100
AcDbCircle
 10
400.2534505797
 20
-52.6892115112
 30
0.0
 40
8.206796129705182
100
AcDbArc
 50
115.0156903398
 51
173.6641687026
  0
ENDSEC
  0
SECTION
  2
OBJECTS
  0
DICTIONARY
  5
C
330
0
100
AcDbDictionary
281
     1
  3
ACAD_GROUP
350
D
  3
ACAD_LAYOUT
350
1A
  3
ACAD_MLINESTYLE
350
17
  3
ACAD_PLOTSETTINGS
350
19
  3
ACAD_PLOTSTYLENAME
350
E
  3
ACAD_SCALELIST
350
47
  3
DWGPROPS
350
143
  0
DICTIONARY
  5
D
102
{ACAD_REACTORS
330
C
102
}
330
C
100
AcDbDictionary
281
     1
  0
DICTIONARY
  5
1A
102
{ACAD_REACTORS
330
C
102
}
330
C
100
AcDbDictionary
281
     1
  3
Layout1
350
1E
  3
Layout2
350
26
  3
Model
350
22
  0
DICTIONARY
  5
17
102
{ACAD_REACTORS
330
C
102
}
330
C
100
AcDbDictionary
281
     1
  3
Standard
350
18
  0
DICTIONARY
  5
19
102
{ACAD_REACTORS
330
C
102
}
330
C
100
AcDbDictionary
281
     1
  0
ACDBDICTIONARYWDFLT
  5
E
102
{ACAD_REACTORS
330
C
102
}
330
C
100
AcDbDictionary
281
     1
  3
Normal
350
F
100
AcDbDictionaryWithDefault
340
F
  0
DICTIONARY
  5
47
102
{ACAD_REACTORS
330
C
102
}
330
C
100
AcDbDictionary
281
     1
  3
A0
350
48
  3
A1
350
49
  3
A2
350
4A
  3
A3
350
4B
  3
A4
350
4C
  3
A5
350
4D
  3
A6
350
4E
  3
A7
350
4F
  3
A8
350
50
  3
A9
350
51
  3
B0
350
52
  3
B1
350
53
  3
B2
350
54
  3
B3
350
55
  3
B4
350
56
  3
B5
350
57
  3
B6
350
58
  3
B7
350
59
  3
B8
350
5A
  3
B9
350
5B
  3
C0
350
5C
  3
C1
350
5D
  3
C2
350
5E
  3
C3
350
5F
  3
C4
350
60
  3
C5
350
61
  3
C6
350
62
  3
C7
350
63
  3
C8
350
64
  3
C9
350
65
  3
D0
350
66
  3
D1
350
67
  3
D2
350
68
  0
XRECORD
  5
143
102
{ACAD_REACTORS
330
C
102
}
330
C
100
AcDbXrecord
280
     1
  1
DWGPROPS COOKIE
  2

  3

  4

  6

  7

  8
b.kav
  9

300
=
301
=
302
=
303
=
304
=
305
=
306
=
307
=
308
=
309
=
 40
0.0
 41
2459741.489529514
 42
2459741.489529699
  1

 90
        0
  0
LAYOUT
  5
1E
102
{ACAD_REACTORS
330
1A
102
}
330
1A
100
AcDbPlotSettings
  1

  2
none_device
  4

  6

 40
0.0
 41
0.0
 42
0.0
 43
0.0
 44
0.0
 45
0.0
 46
0.0
 47
0.0
 48
0.0
 49
0.0
140
0.0
141
0.0
142
1.0
143
1.0
 70
   688
 72
     1
 73
     0
 74
     5
  7

 75
    16
147
1.0
148
0.0
149
0.0
100
AcDbLayout
  1
Layout1
 70
     1
 71
     1
 10
0.0
 20
0.0
 11
420.0
 21
297.0
 12
0.0
 22
0.0
 32
0.0
 14
1.0000000000E+20
 24
1.0000000000E+20
 34
1.0000000000E+20
 15
-1.0000000000E+20
 25
-1.0000000000E+20
 35
-1.0000000000E+20
146
0.0
 13
0.0
 23
0.0
 33
0.0
 16
1.0
 26
0.0
 36
0.0
 17
0.0
 27
1.0
 37
0.0
 76
     0
330
1B
  0
LAYOUT
  5
26
102
{ACAD_REACTORS
330
1A
102
}
330
1A
100
AcDbPlotSettings
  1

  2
none_device
  4

  6

 40
0.0
 41
0.0
 42
0.0
 43
0.0
 44
0.0
 45
0.0
 46
0.0
 47
0.0
 48
0.0
 49
0.0
140
0.0
141
0.0
142
1.0
143
1.0
 70
   688
 72
     1
 73
     0
 74
     5
  7

 75
    16
147
1.0
148
0.0
149
0.0
100
AcDbLayout
  1
Layout2
 70
     1
 71
     2
 10
0.0
 20
0.0
 11
0.0
 21
0.0
 12
0.0
 22
0.0
 32
0.0
 14
0.0
 24
0.0
 34
0.0
 15
0.0
 25
0.0
 35
0.0
146
0.0
 13
0.0
 23
0.0
 33
0.0
 16
1.0
 26
0.0
 36
0.0
 17
0.0
 27
1.0
 37
0.0
 76
     0
330
23
  0
LAYOUT
  5
22
102
{ACAD_REACTORS
330
1A
102
}
330
1A
100
AcDbPlotSettings
  1

  2
none_device
  4
Letter_(8.50_x_11.00_Inches)
  6

 40
6.35
 41
6.35
 42
6.35000508
 43
6.35000508
 44
215.9
 45
279.4
 46
0.0
 47
0.0
 48
0.0
 49
0.0
140
0.0
141
0.0
142
1.0
143
1.0
 70
  1712
 72
     1
 73
     0
 74
     0
  7

 75
     0
147
1.0
148
0.0
149
0.0
100
AcDbLayout
  1
Model
 70
     1
 71
     0
 10
0.0
 20
0.0
 11
279.4
 21
215.9
 12
0.0
 22
0.0
 32
0.0
 14
0.0
 24
0.0
 34
0.0
 15
279.4
 25
215.9
 35
0.0
146
0.0
 13
0.0
 23
0.0
 33
0.0
 16
1.0
 26
0.0
 36
0.0
 17
0.0
 27
1.0
 37
0.0
 76
     0
330
1F
331
29
  0
MLINESTYLE
  5
18
102
{ACAD_REACTORS
330
17
102
}
330
17
100
AcDbMlineStyle
  2
Standard
 70
     0
  3

 62
   256
 51
90.0
 52
90.0
 71
     2
 49
0.5
 62
   256
  6
BYLAYER
 49
-0.5
 62
   256
  6
BYLAYER
  0
ACDBPLACEHOLDER
  5
F
102
{ACAD_REACTORS
330
E
102
}
330
E
  0
SCALE
  5
48
102
{ACAD_REACTORS
330
47
102
}
330
47
100
AcDbScale
 70
     0
300
1:1
140
1.0
141
1.0
290
     1
  0
SCALE
  5
49
102
{ACAD_REACTORS
330
47
102
}
330
47
100
AcDbScale
 70
     0
300
1:2
140
1.0
141
2.0
290
     0
  0
SCALE
  5
4A
102
{ACAD_REACTORS
330
47
102
}
330
47
100
AcDbScale
 70
     0
300
1:4
140
1.0
141
4.0
290
     0
  0
SCALE
  5
4B
102
{ACAD_REACTORS
330
47
102
}
330
47
100
AcDbScale
 70
     0
300
1:5
140
1.0
141
5.0
290
     0
  0
SCALE
  5
4C
102
{ACAD_REACTORS
330
47
102
}
330
47
100
AcDbScale
 70
     0
300
1:8
140
1.0
141
8.0
290
     0
  0
SCALE
  5
4D
102
{ACAD_REACTORS
330
47
102
}
330
47
100
AcDbScale
 70
     0
300
1:10
140
1.0
141
10.0
290
     0
  0
SCALE
  5
4E
102
{ACAD_REACTORS
330
47
102
}
330
47
100
AcDbScale
 70
     0
300
1:16
140
1.0
141
16.0
290
     0
  0
SCALE
  5
4F
102
{ACAD_REACTORS
330
47
102
}
330
47
100
AcDbScale
 70
     0
300
1:20
140
1.0
141
20.0
290
     0
  0
SCALE
  5
50
102
{ACAD_REACTORS
330
47
102
}
330
47
100
AcDbScale
 70
     0
300
1:30
140
1.0
141
30.0
290
     0
  0
SCALE
  5
51
102
{ACAD_REACTORS
330
47
102
}
330
47
100
AcDbScale
 70
     0
300
1:40
140
1.0
141
40.0
290
     0
  0
SCALE
  5
52
102
{ACAD_REACTORS
330
47
102
}
330
47
100
AcDbScale
 70
     0
300
1:50
140
1.0
141
50.0
290
     0
  0
SCALE
  5
53
102
{ACAD_REACTORS
330
47
102
}
330
47
100
AcDbScale
 70
     0
300
1:100
140
1.0
141
100.0
290
     0
  0
SCALE
  5
54
102
{ACAD_REACTORS
330
47
102
}
330
47
100
AcDbScale
 70
     0
300
2:1
140
2.0
141
1.0
290
     0
  0
SCALE
  5
55
102
{ACAD_REACTORS
330
47
102
}
330
47
100
AcDbScale
 70
     0
300
4:1
140
4.0
141
1.0
290
     0
  0
SCALE
  5
56
102
{ACAD_REACTORS
330
47
102
}
330
47
100
AcDbScale
 70
     0
300
8:1
140
8.0
141
1.0
290
     0
  0
SCALE
  5
57
102
{ACAD_REACTORS
330
47
102
}
330
47
100
AcDbScale
 70
     0
300
10:1
140
10.0
141
1.0
290
     0
  0
SCALE
  5
58
102
{ACAD_REACTORS
330
47
102
}
330
47
100
AcDbScale
 70
     0
300
100:1
140
100.0
141
1.0
290
     0
  0
SCALE
  5
59
102
{ACAD_REACTORS
330
47
102
}
330
47
100
AcDbScale
 70
     0
300
1/128" = 1'-0"
140
0.0078125
141
12.0
290
     0
  0
SCALE
  5
5A
102
{ACAD_REACTORS
330
47
102
}
330
47
100
AcDbScale
 70
     0
300
1/64" = 1'-0"
140
0.015625
141
12.0
290
     0
  0
SCALE
  5
5B
102
{ACAD_REACTORS
330
47
102
}
330
47
100
AcDbScale
 70
     0
300
1/32" = 1'-0"
140
0.03125
141
12.0
290
     0
  0
SCALE
  5
5C
102
{ACAD_REACTORS
330
47
102
}
330
47
100
AcDbScale
 70
     0
300
1/16" = 1'-0"
140
0.0625
141
12.0
290
     0
  0
SCALE
  5
5D
102
{ACAD_REACTORS
330
47
102
}
330
47
100
AcDbScale
 70
     0
300
3/32" = 1'-0"
140
0.09375
141
12.0
290
     0
  0
SCALE
  5
5E
102
{ACAD_REACTORS
330
47
102
}
330
47
100
AcDbScale
 70
     0
300
1/8" = 1'-0"
140
0.125
141
12.0
290
     0
  0
SCALE
  5
5F
102
{ACAD_REACTORS
330
47
102
}
330
47
100
AcDbScale
 70
     0
300
3/16" = 1'-0"
140
0.1875
141
12.0
290
     0
  0
SCALE
  5
60
102
{ACAD_REACTORS
330
47
102
}
330
47
100
AcDbScale
 70
     0
300
1/4" = 1'-0"
140
0.25
141
12.0
290
     0
  0
SCALE
  5
61
102
{ACAD_REACTORS
330
47
102
}
330
47
100
AcDbScale
 70
     0
300
3/8" = 1'-0"
140
0.375
141
12.0
290
     0
  0
SCALE
  5
62
102
{ACAD_REACTORS
330
47
102
}
330
47
100
AcDbScale
 70
     0
300
1/2" = 1'-0"
140
0.5
141
12.0
290
     0
  0
SCALE
  5
63
102
{ACAD_REACTORS
330
47
102
}
330
47
100
AcDbScale
 70
     0
300
3/4" = 1'-0"
140
0.75
141
12.0
290
     0
  0
SCALE
  5
64
102
{ACAD_REACTORS
330
47
102
}
330
47
100
AcDbScale
 70
     0
300
1" = 1'-0"
140
1.0
141
12.0
290
     0
  0
SCALE
  5
65
102
{ACAD_REACTORS
330
47
102
}
330
47
100
AcDbScale
 70
     0
300
1-1/2" = 1'-0"
140
1.5
141
12.0
290
     0
  0
SCALE
  5
66
102
{ACAD_REACTORS
330
47
102
}
330
47
100
AcDbScale
 70
     0
300
3" = 1'-0"
140
3.0
141
12.0
290
     0
  0
SCALE
  5
67
102
{ACAD_REACTORS
330
47
102
}
330
47
100
AcDbScale
 70
     0
300
6" = 1'-0"
140
6.0
141
12.0
290
     0
  0
SCALE
  5
68
102
{ACAD_REACTORS
330
47
102
}
330
47
100
AcDbScale
 70
     0
300
1'-0" = 1'-0"
140
12.0
141
12.0
290
     0
  0
ENDSEC
  0
EOF
